Feeder - Radiation Chords & Tabs

 

Radiation Chords & Tabs

Feeder Chords & Tabs

Version: 1 Type: Tab 0 ratings
1 star 2 stars 3 stars 4 stars 5 stars
comments

Radiation Tab

Band: Feeder
Song: Radiation
Album: Polythene

[ Tab from: http://www.guitartabs.cc/tabs/f/feeder/radiation_tab.html ]
Intro & Choruses Riff
gtr1:
E|--------------------------------------------------------|
B|--------------------------------------------------------|
G|--------------------------------------------------------|
D|-6---6--6----1-1--1-1---8---8--8--8-8-8--8--8-----------|
A|-6---6--6----1-1--1-1---8---8--8--8-8-8--8--8-----------|
D|-6---6--6----1-1--1-1---8---8--8--8-8-8--8--8-----------|
gtr2:
E|---------------------------------------------------------|
B|---------------------------------------------------------|
G|-------15---15------15---15---------15---15------15----15|
D|-13-13--------13-13---13------12-12--------12-12----12---|
A|---------------------------------------------------------|
D|---------------------------------------------------------|
repeat as needed
Verses:
E|-----------------------------------------------------|
B|-----------------------------------------------------|
G|-----7-------7--------7------------------------------|
D|-----7-7-----7-7------7------------------------------|
A|---5-------5--------5----5----9--9--9--9--10-9-------|
D|-5-------4--------0--------0--0--0--0--0--0--0-------|
just repeat it trough all the verses

Pre Choruses:
E|------------------------------------------|
B|------------------------------------------|
G|------------------------------------------|
D|-1--1-1--1--1-1--1--0--0-0--0--0-0--3b-r--|
A|-1--1-1--1--1-1--1--0--0-0--0--0-0--3b-r--|
D|-1--1-1--1--1-1--1--0--0-0--0--0-0--3b-r--|          

Bridge:
E|--------------------------------------------|
B|--------------------------------------------|
G|--------------------------------------------|
D|-3--3-3--3--3-3--3/44--0--0-0--0--0-0--3b-r-|
A|-3--3-3--3--3-3--3/44--0--0-0--0--0-0--3b-r-|
D|-3--3-3--3--3-3--3/44--0--0-0--0--0-0-------|   


use these parts through all the song!
enjoy, that's easy!
Comments