Feeder - Pushing The Senses Chords & Tabs

 

Pushing The Senses Chords & Tabs

Feeder Chords & Tabs

Version: 3 Type: Tab 0 ratings
1 star 2 stars 3 stars 4 stars 5 stars
comments

Pushing The Senses Tab

Band:	Feeder
Song:	Pushing The Senses
Tabber:	Ruairi Coleman

Play whole song with capo on 5th fret

Ok this is nearly 100% right. The solo is pretty ify and the Pre-chorus isnt great
but i watched the DVD you get with there new album and worked it out from that, i think 
you'll be very happy with this tab. Enjoy and please rate :)

   Intro (Clean)
 E|-------------------------------------|
 B|---------------------------------5---|
 G|-------0-----0-----0-----0-----0-----|
 D|-----------2-----2-----2-----4-------|
 A|-----2---3-----3-----3-----5---------|
 E|---0---------------------------------|
   \_____________ x2 __________________/

   Chorus (Distortion)
 E|---3-3-3-3--3-3-3-3-3-3-3-3-3-3-/-5-5---|-------------------3-3-3-3-3-3-3-3---|
 B|---3-3-3-3--3-3-3-3-3-3-3-3-3-3-/-5-5---|---3-3-3-3-3-3-3-3-3-3-3-3-3-3-3-3---|
 G|---0-0-0-0--0-0-0-0-0-0-0-0-0-0---0-0---|---2-2-2-2-2-2-2-2-0-0-0-0-0-0-0-0---|
 D|---2-2-2-2--2-2-2-2-2-2-2-2-2-2-/-4-4---|---2-2-2-2-2-2-2-2-2-2-2-2-2-2-2-2---|
 A|---2-2-2-3--3-3-3-3-3-3-3-3-3-3-/-5-5---|---0-0-0-0-0-0-0-0-3-3-3-3-3-3-3-3---|
 E|----------------------------------------|-------------------------------------|
   \_______________ x2 ___________________/ 

   Verse (Slight Distortion)
 E|-----------------------|---3-3-3-3-3-3-3-3-3-3-3-3-3-3---|-----------------------|
 B|---0---1---1---1-------|---3-3-3-3-3-3-3-3-3-3-3-3-3-3---|---0---1---1---1-------|
 G|-----0---0---0---0-2---|---------------------------------|-----0---0---0---0-2---|
 D|-----------------------|---------------------------------|-----------------------|
 A|-----------------------|---------------------------------|-----------------------|
 E|-----------------------|---------------------------------|-----------------------|
   \_________ x2 ________/			       	     \_________ x2 ________/

   Pre-chorus (Slight Distortion)
 E|---------------------------------------------|
 B|---------------------------------------------|
 G|---0-2-4---7--5--4--2---0-2-4---7\5\4\2--0---|
 D|---------5--------------------5--------------|
 A|---------------------------------------------|
 E|---------------------------------------------|

 E|---------------------------3-----3-----3-----3----------|
 B|-----------------------------3-----3-----3-----3--------|
 G|---0-2---4------5\4\2-0--2-----2-----2-----2-----2------|
 D|-----------5--0-----------------------------------------|
 A|--------------------------------------------------------|
 E|--------------------------------------------------------|

   Chorus (Distortion)
 E|---3-3-3-3--3-3-3-3-3-3-3-3-3-3-/-5-5---|-------------------3-3-3-3-3-3-3-3---|
 B|---3-3-3-3--3-3-3-3-3-3-3-3-3-3-/-5-5---|---3-3-3-3-3-3-3-3-3-3-3-3-3-3-3-3---|
 G|---0-0-0-0--0-0-0-0-0-0-0-0-0-0---0-0---|---2-2-2-2-2-2-2-2-0-0-0-0-0-0-0-0---|
 D|---2-2-2-2--2-2-2-2-2-2-2-2-2-2-/-4-4---|---2-2-2-2-2-2-2-2-2-2-2-2-2-2-2-2---|
 A|---2-2-2-3--3-3-3-3-3-3-3-3-3-3-/-5-5---|---0-0-0-0-0-0-0-0-3-3-3-3-3-3-3-3---|
 E|----------------------------------------|-------------------------------------|
   \_______________ x3 ___________________/ 

   Verse 2 (Slight Distortion)
 E|-----------------------|---3-3-3-3-3-3-3-3-3-3-3-3-3-3---|
 B|---0---1---1---1-------|---3-3-3-3-3-3-3-3-3-3-3-3-3-3---|
 G|-----0---0---0---0-2---|---------------------------------|
 D|-----------------------|---------------------------------|
 A|-----------------------|---------------------------------|
 E|-----------------------|---------------------------------|
   \_________ x2 ________/

   Pre-chorus (Slight Distortion)
 E|---------------------------------------------|
 B|---------------------------------------------|
 G|---0-2-4---7--5--4--2---0-2-4---7\5\4\2--0---|
 D|---------5--------------------5--------------|
 A|---------------------------------------------|
 E|---------------------------------------------|
[ Tab from: http://www.guitartabs.cc/tabs/f/feeder/pushing_the_senses_tab_ver_3.html ]
 E|---------------------------3-----3-----3-----3----------|
 B|-----------------------------3-----3-----3-----3--------|
 G|---0-2---4------5\4\2-0--2-----2-----2-----2-----2------|
 D|-----------5--0-----------------------------------------|
 A|--------------------------------------------------------|
 E|--------------------------------------------------------|

   Chorus (Distortion)
 E|---3-3-3-3--3-3-3-3-3-3-3-3-3-3-/-5-5---|-------------------3-3-3-3-3-3-3-3---|
 B|---3-3-3-3--3-3-3-3-3-3-3-3-3-3-/-5-5---|---3-3-3-3-3-3-3-3-3-3-3-3-3-3-3-3---|
 G|---0-0-0-0--0-0-0-0-0-0-0-0-0-0---0-0---|---2-2-2-2-2-2-2-2-0-0-0-0-0-0-0-0---|
 D|---2-2-2-2--2-2-2-2-2-2-2-2-2-2-/-4-4---|---2-2-2-2-2-2-2-2-2-2-2-2-2-2-2-2---|
 A|---2-2-2-3--3-3-3-3-3-3-3-3-3-3-/-5-5---|---0-0-0-0-0-0-0-0-3-3-3-3-3-3-3-3---|
 E|----------------------------------------|-------------------------------------|
   \_______________ x3 ___________________/ 

   Chorus is played again put the first half is played 3 time with guitar 2
   playin over the top of it with the first part of the verse

   Chorus (Distortion)
 E|---3-3-3-3--3-3-3-3-3-3-3-3-3-3-/-5-5---|-------------------3-3-3-3-3-3-3-3---|
 B|---3-3-3-3--3-3-3-3-3-3-3-3-3-3-/-5-5---|---3-3-3-3-3-3-3-3-3-3-3-3-3-3-3-3---|
 G|---0-0-0-0--0-0-0-0-0-0-0-0-0-0---0-0---|---2-2-2-2-2-2-2-2-0-0-0-0-0-0-0-0---|
 D|---2-2-2-2--2-2-2-2-2-2-2-2-2-2-/-4-4---|---2-2-2-2-2-2-2-2-2-2-2-2-2-2-2-2---|
 A|---2-2-2-3--3-3-3-3-3-3-3-3-3-3-/-5-5---|---0-0-0-0-0-0-0-0-3-3-3-3-3-3-3-3---|
 E|----------------------------------------|-------------------------------------|
   \_______________ x3 ___________________/ 
   / Guitar2 plays over chorus with this  \
 E|----------------------------------------|
 B|---0--------1-------1-------1-----------|
 G|-------0--------0-------0-------0-2-----|
 D|----------------------------------------|
 A|----------------------------------------|
 E|----------------------------------------|

   Solo (Slight Distortion)
 E|---------------------------------------------------------------x-12-12-12-12-12-12---|
 B|---------------------------------------------12-12-12-12-12-12-x-12-12-12-12-12-12---|
 G|---------------------------------------------12-12-12-12-12-12-x-12-12-12-12-12-12---|
 D|--14-14-14-12-12-12-10-10-10-9-9-9-9-9-9-x---12-12-12-12-12-12-----------------------|
 A|-------------------------------------------------------------------------------------|
 E|-------------------------------------------------------------------------------------|
   \_______________________________________ x3 ________________________________________/

   fill 1 (Slight Distortion)
 E|-----------------------|-3-|
 B|---0---1---1---1-------|-3-|
 G|-----0---0---0---0-2---|-0-|
 D|-----------------------|-2-|
 A|-----------------------|-2-|
 E|-----------------------|---|
   \_________ x4 ________/

   Intro (Clean)
 E|-------------------------------------|
 B|---------------------------------5---|
 G|-------0-----0-----0-----0-----0-----|
 D|-----------2-----2-----2-----4-------|
 A|-----2---3-----3-----3-----5---------|
 E|---0---------------------------------|
   \_____________ x4 __________________/

   Outro (Distortion)
 E|---3-3-3-3--3-3-3-3-3-3-3-3-3-3-/-5-5---|-------------------3-3-3-3-3-3-3-3---|
 B|---3-3-3-3--3-3-3-3-3-3-3-3-3-3-/-5-5---|---3-3-3-3-3-3-3-3-3-3-3-3-3-3-3-3---|
 G|---0-0-0-0--0-0-0-0-0-0-0-0-0-0---0-0---|---2-2-2-2-2-2-2-2-0-0-0-0-0-0-0-0---|
 D|---2-2-2-2--2-2-2-2-2-2-2-2-2-2-/-4-4---|---2-2-2-2-2-2-2-2-2-2-2-2-2-2-2-2---|
 A|---2-2-2-3--3-3-3-3-3-3-3-3-3-3-/-5-5---|---0-0-0-0-0-0-0-0-3-3-3-3-3-3-3-3---|
 E|----------------------------------------|-------------------------------------|
   \________________ x3 __________________/
										  /(Clean)\
 E|---3-3-3-3--3-3-3-3-3-3-3-3-3-3-/-5-5---|-------------------3-3-3-3-3-3-3-3---|-3-------|
 B|---3-3-3-3--3-3-3-3-3-3-3-3-3-3-/-5-5---|---3-3-3-3-3-3-3-3-3-3-3-3-3-3-3-3---|-3-------|
 G|---0-0-0-0--0-0-0-0-0-0-0-0-0-0---0-0---|---2-2-2-2-2-2-2-2-0-0-0-0-0-0-0-0---|-0-------|
 D|---2-2-2-2--2-2-2-2-2-2-2-2-2-2-/-4-4---|---2-2-2-2-2-2-2-2-2-2-2-2-2-2-2-2---|-2-------|
 A|---2-2-2-3--3-3-3-3-3-3-3-3-3-3-/-5-5---|---0-0-0-0-0-0-0-0-3-3-3-3-3-3-3-3---|-2-------|
 E|----------------------------------------|-------------------------------------|---------|
   \________________ x3 __________________/ \_________________ x2 ______________/ Let Ring 

Please comment on any corrections. Thanks
Comments