Feeder - Pushing The Senses Chords & Tabs

 

Pushing The Senses Chords & Tabs

Feeder Chords & Tabs

Version: 1 Type: Tab 0 ratings
1 star 2 stars 3 stars 4 stars 5 stars
comments

Pushing The Senses Tab

   
Artist:	Feeder
Title:	Pushing The Senses
Album:	Pushing The Senses

Tabbed By:	Daniel Brits (daniel_b11@hotmail.com)
Tuning: 	Standard (E A D G B E)

INTRO  (part 1)
E|-------------------------------5-------------------|
B|---------------------------------5-----------------|
G|-----5-----5-----5-----5-----5---------------------|
D|---7-----7-----7-----7-----7-----------------------|
A|-7-----8-----8-----8-----7-------------------------|
E|---------------------------------------------------|
this is played twice for the intro

then:  (part 2)
E|---------------------------------------------------|
B|---------------------------------------------------|
G|-9-9-9-10-10-10-10-10-10-10-10-10-10-10-10---------|
D|-9-9-9-10-10-10-10-10-10-10-10-10-10-10-10---------|
A|-7-7-7-8--8--8--8--8--8--8--8--8--8--8--8----------|
E|---------------------------------------------------|
played quite fast -> play it twice

then:  (part 3)
E|---------------------------------------------------|
B|---------------------------------------------------|
G|-7-7-7-7-7-7-7-7-10-10-10-10-10-10-10-10-----------|
D|-7-7-7-7-7-7-7-7-10-10-10-10-10-10-10-10-----------|
A|-5-5-5-5-5-5-5-5-8--8--8--8--8--8--8--8------------|
E|---------------------------------------------------|

continue to:  ("melody")
E|-------------------------|-------------------------|
B|-------------------------|-------------------------|
G|-9----10----10----10----7|-9----10----10----10----7|
D|---10----10----10----10--|---10----10----10----10--|
A|-------------------------|-------------------------|
E|-------------------------|-------------------------|


VERSE
E|---------------------------------------|
B|---------------------------------------|
G|-9--------5--------9--------5----------|
D|-9-(x16)--5-(x16)--9-(x16)--5--(x16)---|
A|-7--------3--------7--------3----------|
E|---------------------------------------|


Now play the "melody" riff.



PRE-CHORUS
E|--------------------------------------------------|
B|--------------------------------------------------|
G|----9----10-12-9----9-7-9-----9-12-10-9-7/9-------|
D|-10---10---------10--------10---------------------|
A|--------------------------------------------------|
E|--------------------------------------------------|

E|--------------------------------------------------|
B|--------------------------------------------------|
G|----9----9--12-10-9------9----9-----12-10-9-------|
D|-10---10------------10-----10---10----------10----|
A|--------------------------------------------------|
E|--------------------------------------------------|
Hope that this makes sense - it's tricky, so listen
carefully to the flow. It sounds fine if you can get
it flowing correctly!
[ Tab from: http://www.guitartabs.cc/tabs/f/feeder/pushing_the_senses_tab.html ]
CHORUS
E|--------------------------------------------|
B|--------------------------------------------|
G|-9-9-9--10-10-10-10-10-10-10-10-10-10-10-10-|
D|-9-9-9--10-10-10-10-10-10-10-10-10-10-10-10-|
A|-7-7-7--8--8--8--8--8--8--8--8--8--8--8--8--|
E|--------------------------------------------|

E|--------------------------------------------|
B|--------------------------------------------|
G|-9-9-9--10-10-10-10--5-5-5-5-5-5-5-5--------|
D|-9-9-9--10-10-10-10--5-5-5-5-5-5-5-5--------|
A|-7-7-7--8--8--8--8---3-3-3-3-3-3-3-3--------|
E|--------------------------------------------|
play twice.


Now play "melody" riff.


Now play VERSE.


Now play PRE-CHORUS.


Now play CHORUS. (x2)


BRIDGE
E|--------------------------------------------------|
B|-10-10-10--8-8-8--6-6-6--5-5-5-5-5-5-5-5----------|
G|--------------------------------------------------|
D|--------------------------------------------------|
A|--------------------------------------------------|
E|--------------------------------------------------|

E|--------------------------------------------------|
B|-13-13-13-13-13-13-13-13--------------------------|
G|-14-14-14-14-14-14-14-14--7-7-7-7-7-7-7-7---------|
D|-14-14-14-14-14-14-14-14--7-7-7-7-7-7-7-7---------|
A|--------------------------5-5-5-5-5-5-5-5---------|
E|--------------------------------------------------|

E|--------------------------------------------------|
B|-10-10-10--8-8-8--6-6-6--5-5-5-5-5-5-5-5----------|
G|--------------------------------------------------|
D|--------------------------------------------------|
A|--------------------------------------------------|
E|--------------------------------------------------|



E|--------------------------------------------------|
B|--------------------------------------------------|
G|-7-7-7-7-7-7-7-7--10-10-10-10-10-10-10-10---------|
D|-7-7-7-7-7-7-7-7--10-10-10-10-10-10-10-10---------|
A|-5-5-5-5-5-5-5-5--8--8--8--8--8--8--8--8----------|
E|--------------------------------------------------|

E|--------------------------------------------------|
B|-10-10-10--8-8-8--6-6-6--5-5-5-5-5-5-5-5----------|
G|--------------------------------------------------|
D|--------------------------------------------------|
A|--------------------------------------------------|
E|--------------------------------------------------|

E|--------------------------------------------------|
B|-13-13-13-13-13-13-13-13--------------------------|
G|-14-14-14-14-14-14-14-14--10-10-10-10-10-10-10-10-|
D|-14-14-14-14-14-14-14-14--10-10-10-10-10-10-10-10-|
A|--------------------------8--8--8--8--8--8--8--8--|
E|--------------------------------------------------|


Now Play "melody". (x2)


Now play INTRO (part 1). (x4)


Now play CHORUS. (x2)


OUTRO
E|------------------------------------------------|
B|------------------------------------------------|
G|-7-7-7-7-7-7-7-7--10-10-10-10-10-10-10-10--5~~~~|
D|-7-7-7-7-7-7-7-7--10-10-10-10-10-10-10-10--5~~~~|
A|-5-5-5-5-5-5-5-5--8--8--8--8--8--8--8--8---3~~~~|
E|------------------------------------------------|
Comments