Feeder - Pushing The Senses Chords & Tabs

 

Pushing The Senses Chords & Tabs

Feeder Chords & Tabs

Version: 1 Type: Bass Tab

Pushing The Senses Bass Tab

Artist: Feeder
Song: Pushing the senses
Tuning: Standard

If u notice any problems leave a comment and i'll try to correct it. Cheers.

Intro:
(Guitar only)

Then:
|---------------------------------|
|---------------------------------|
|-0-0-0---------------------------|
|-------1-1-1-1-1-1-1-1-1-1-1-3-3-|

|--------------------------------------------------------------------|
|--------------------------------------------------------------------|
|0-0-0-----------------------3-3-----5-5-5-5-5-5-5-5-5-8-8-8-8-8-8-8-|
|------1-1-1-1-1-1-1-1-1-1-1-----3-3---------------------------------|

Fill:
|----------------------------------------------------------------|
|----------------------------------------------------------------|
|0-0-0---------------------------0-0-0---------------------------|
|------1-1-1-1-1-1-1-1-1-1-1-3-3-------1-1-1-1-1-1-1-1-1-1-1-3-3-|

Verse 1:
|---------------------------------|
|---------------------------------| x6
|-0-0-0---------------------------|
|-------1-1-1-1-1-1-1-1-1-1-1-3-3-|

Pre-Chorus:
|----------------------------------|
|----------------------------------|
|------0-0-0-----------------------|
|3-3-3-------1-1-1-1-1-1-1-1-1-1-1-|

|----------------------------------|
|----------------------------------|
|------0-0-0-3-3-3-3-3-3-3-3-3-3-3-|
|3-3-3-----------------------------|

|----------------------------------|
|----------------------------------|
|------0-0-0-----------------------|
|3-3-3-------1-1-1-1-1-1-1-1-1-1-1-|

|-------------------------------------|
|-------------------------------------|
|-------------------------------------|
|3-3-3-3-3-3-3-3-3-3-3-3-3-3-3-3/83---|

Chorus:
|--------------------------------------------------------------------|
|--------------------------------------------------------------------|
|0-0-0---------------------------0-0-0-----------------------3-3-----|
|------1-1-1-1-1-1-1-1-1-1-1-3-3-------1-1-1-1-1-1-1-1-1-1-1-----3-3-|

|----------------------------------------------------------------|
|----------------------------------------------------------------|
|0-0-0---------------------------5-5-5-5-5-5-5-5-5-8-8-8-8-8-8-8-|
|------1-1-1-1-1-1-1-1-1-1-1-3-3---------------------------------|

Fill:
|----------------------------------------------------------------|
|----------------------------------------------------------------|
|0-0-0---------------------------0-0-0---------------------------|
|------1-1-1-1-1-1-1-1-1-1-1-3-3-------1-1-1-1-1-1-1-1-1-1-1-3-3-|

Verse 2:
|---------------------------------|
|---------------------------------| x4
|-0-0-0---------------------------|
|-------1-1-1-1-1-1-1-1-1-1-1-3-3-|

Pre-Chorus:
|----------------------------------|
|----------------------------------|
|------0-0-0-----------------------|
|3-3-3-------1-1-1-1-1-1-1-1-1-1-1-|

|----------------------------------|
|----------------------------------|
|------0-0-0-3-3-3-3-3-3-3-3-3-3-3-|
|3-3-3-----------------------------|

|----------------------------------|
|----------------------------------|
|------0-0-0-----------------------|
|3-3-3-------1-1-1-1-1-1-1-1-1-1-1-|

|-------------------------------------|
|-------------------------------------|
|-------------------------------------|
|3-3-3-3-3-3-3-3-3-3-3-3-3-3-3-3/83---|
[ Tab from: http://www.guitartabs.cc/tabs/f/feeder/pushing_the_senses_btab.html ]
Chorus:
|--------------------------------------------------------------------|
|--------------------------------------------------------------------|
|0-0-0---------------------------0-0-0-----------------------3-3-----|
|------1-1-1-1-1-1-1-1-1-1-1-3-3-------1-1-1-1-1-1-1-1-1-1-1-----3-3-|

|----------------------------------------------------------------|
|----------------------------------------------------------------|
|0-0-0---------------------------5-5-5-5-5-5-5-5-5-8-8-8-8-8-8-8-|
|------1-1-1-1-1-1-1-1-1-1-1-3-3---------------------------------|

|--------------------------------------------------------------------|
|--------------------------------------------------------------------|
|0-0-0---------------------------0-0-0-----------------------3-3-----|
|------1-1-1-1-1-1-1-1-1-1-1-3-3-------1-1-1-1-1-1-1-1-1-1-1-----3-3-|

|----------------------------------------------------------------|
|----------------------------------------------------------------|
|0-0-0---------------------------5-5-5-5-5-5-5-5-5-8-8-8-8-8-8-8-|
|------1-1-1-1-1-1-1-1-1-1-1-3-3---------------------------------|

Bridge:
|----------------------------------------|
|----------------------------------------|
|12-12-12-10-10-10-8-8-8-7-7-7-7-7-7-7-7-| Rest
|----------------------------------------|

|--------------|
|--------------|
|8-8-8-8-8-8-8-|
|--------------|

|----------------------------------------|
|----------------------------------------|
|12-12-12-10-10-10-8-8-8-7-7-7-7-7-7-7-7-|
|----------------------------------------|

|--------------------------------|
|--------------------------------|
|7-7-7-7-7-7-7-7-7-8-8-8-8-8-8-8-|
|--------------------------------|

|----------------------------------------|
|----------------------------------------|
|12-12-12-10-10-10-8-8-8-7-7-7-7-7-7-7-7-| Rest
|----------------------------------------|

|--------------|
|--------------|
|8-8-8-8-8-8-8-|
|--------------|

Fill:
|----------------------------------------------------------------|
|----------------------------------------------------------------| x2
|0-0-0---------------------------0-0-0---------------------------|
|------1-1-1-1-1-1-1-1-1-1-1-3-3-------1-1-1-1-1-1-1-1-1-1-1-3-3-|

Pre-Chorus:
Rest

Chorus:
|--------------------------------------------------------------------|
|--------------------------------------------------------------------|
|0-0-0---------------------------0-0-0-----------------------3-3-----|
|------1-1-1-1-1-1-1-1-1-1-1-3-3-------1-1-1-1-1-1-1-1-1-1-1-----3-3-|

|----------------------------------------------------------------|
|----------------------------------------------------------------|
|0-0-0---------------------------5-5-5-5-5-5-5-5-5-8-8-8-8-8-8-8-|
|------1-1-1-1-1-1-1-1-1-1-1-3-3---------------------------------|

|--------------------------------------------------------------------|
|--------------------------------------------------------------------|
|0-0-0---------------------------0-0-0-----------------------3-3-----|
|------1-1-1-1-1-1-1-1-1-1-1-3-3-------1-1-1-1-1-1-1-1-1-1-1-----3-3-|

|----------------------------------------------------------------|
|----------------------------------------------------------------|
|0-0-0---------------------------5-5-5-5-5-5-5-5-5-8-8-8-8-8-8-8-|
|------1-1-1-1-1-1-1-1-1-1-1-3-3---------------------------------|

|----------------------------------|
|----------------------------------|
|5-5-5-5-5-5-5-5-5-8-8-8-8-8-8-8-0-|Let ring
|----------------------------------|