Feeder - Pilgrim Soul Chords & Tabs

 

Pilgrim Soul Chords & Tabs

Feeder Chords & Tabs

Version: 1 Type: Tab 0 ratings
1 star 2 stars 3 stars 4 stars 5 stars
comments

Pilgrim Soul Tab

   
Song: Pilgrim Soul
Band: Feeder
Album: Pushing The Senses

Intro

Guitar 1: riff 1
e|---------------------------------------------------------------------|x2
B|---------------------------------------------------------------------|
G|---------------------------------------------------------------------|
D|---------------------------------------------------------------------|
A|---9-9-----9-----9-----9-----9-9-9-6-6-----6-----6-----6-----6-6-6---|
E|---7-7-7-7-7-7-7-7-7-7-7-7-7-7-7-7-4-4-4-4-4-4-4-4-4-4-4-4-4-4-4-4---|

Guitar 3:(riff 1) at the 2nd time play this
e|----------------------|
B|----------------------|
G|---17h20~----13h16~---|
D|----------------------|
A|----------------------|
E|----------------------|

Verse 1

Guitar 1: 
e|---------------------------------------------------------------------|
B|---------------------------------------------------------------------|
G|---------------------------------------------------------------------|
D|---------------------------------------------------------------------|
A|---9-9-----9-----9-----9-----9-9-9-6-6-----6-----6-----6-----6-6-6---|
E|---7-7-7-7-7-7-7-7-7-7-7-7-7-7-7-7-4-4-4-4-4-4-4-4-4-4-4-4-4-4-4-4---|

Guitar 2
e|-------------------------------------------------------------------------|
B|-------------------------------------------------------------------------|
G|-------------------------------------------------------------------------|
D|-13-13-13-11-11-11-9-9-9-8-8-8-8-8---13-13-13-11-11-11-9-9-9-8-8-8-8-8-8-|
A|-------------------------------------------------------------------------|
E|-------------------------------------------------------------------------|
   .  .  .  .  .  .  . . . . . . . .   .  .  .  .  .  .  . . . . . . . . .

a 3d guitar keeps playing riff 1

Guitar 1:
e|----------------------------------|
B|----------------------------------|
G|----------------------------------|
D|--99999999999999--66666666666666--|
A|--99999999999999--66666666666666--|
E|--77777777777777--44444444444444--|


Repat verse 1 twice

Pre-Chorus 1

Guitar 1: 
e|------------------------------------|x2
B|------------------------------------|
G|--666666666666666-------------------|
D|--666666666666666--222222222222222--|
A|--444444444444444--222222222222222--|
E|-------------------000000000000000--|

Guitar 2
e|-------------------------------------------|x2
B|--5--4----5-4----5-4----5--4----5-4----5-4-|
G|-4-4-----4------4------4-4-----4------4----|
D|-------------------------------------------|
A|-------------------------------------------|
E|-------------------------------------------|


Chorus 1

Guitar 1
e|---------------------------------------------------------------|
B|---------------------------------------------------------------|
G|--99999999999999-----------------88888888888888-9999999999999--|
D|--99999999999999-999999999999999-88888888888888-9999999999999--|
A|--77777777777777-999999999999999-66666666666666-7777777777777--|
E|-----------------777777777777777-------------------------------|

Guitar 2
e|---------------------------------------------------------------|
B|---------------------------------------------------------------|
G|--99999999999999-----------------88888888888888----------------|
D|--99999999999999-999999999999999-88888888888888-2222222222222--|
A|--77777777777777-999999999999999-66666666666666-2222222222222--|
E|-----------------777777777777777----------------0000000000000--|


Break

Guitar 1:
e|---------------------------------------------------------------------|
B|---------------------------------------------------------------------|
G|---------------------------------------------------------------------|
D|---------------------------------------------------------------------|
A|---9-9-----9-----9-----9-----9-9-9-6-6-----6-----6-----6-----6-6-6---|
E|---7-7-7-7-7-7-7-7-7-7-7-7-7-7-7-7-4-4-4-4-4-4-4-4-4-4-4-4-4-4-4-4---|

Guitar 2
e|-------------------------------------------------------------------------|
B|-------------------------------------------------------------------------|
G|-------------------------------------------------------------------------|
D|-13-13-13-11-11-11-9-9-9-8-8-8-8-8---13-13-13-11-11-11-9-9-9-8-8-8-8-8-8-|
A|-------------------------------------------------------------------------|
E|-------------------------------------------------------------------------|
   .  .  .  .  .  .  . . . . . . . .   .  .  .  .  .  .  . . . . . . . . .

Verse 2
[ Tab from: http://www.guitartabs.cc/tabs/f/feeder/pilgrim_soul_tab.html ]
Guitar 1: 
e|---------------------------------------------------------------------|
B|---------------------------------------------------------------------|
G|---------------------------------------------------------------------|
D|---------------------------------------------------------------------|
A|---9-9-----9-----9-----9-----9-9-9-6-6-----6-----6-----6-----6-6-6---|
E|---7-7-7-7-7-7-7-7-7-7-7-7-7-7-7-7-4-4-4-4-4-4-4-4-4-4-4-4-4-4-4-4---|

Guitar 2
e|-------------------------------------------------------------------------|
B|-------------------------------------------------------------------------|
G|-------------------------------------------------------------------------|
D|-13-13-13-11-11-11-9-9-9-8-8-8-8-8---13-13-13-11-11-11-9-9-9-8-8-8-8-8-8-|
A|-------------------------------------------------------------------------|
E|-------------------------------------------------------------------------|
   .  .  .  .  .  .  . . . . . . . .   .  .  .  .  .  .  . . . . . . . . . 

gtr 3:same riff
 
Guitar 1:
e|----------------------------------|
B|----------------------------------|
G|----------------------------------|
D|--99999999999999--66666666666666--|
A|--99999999999999--66666666666666--|
E|--77777777777777--44444444444444--|

repeat verse 2 twice

Pre-Chorus 2: same as Pre-Chorus 1


Chorus 2

Guitar 1
e|---------------------------------------------------------------|x2
B|---------------------------------------------------------------|
G|--99999999999999-----------------88888888888888-9999999999999--|
D|--99999999999999-999999999999999-88888888888888-9999999999999--|
A|--77777777777777-999999999999999-66666666666666-7777777777777--|
E|-----------------777777777777777-------------------------------|

Guitar 2
e|---------------------------------------------------------------|x2
B|---------------------------------------------------------------|
G|--99999999999999-----------------88888888888888----------------|
D|--99999999999999-999999999999999-88888888888888-2222222222222--|
A|--77777777777777-999999999999999-66666666666666-2222222222222--|
E|-----------------777777777777777----------------0000000000000--|

Guitar 3 (at the 2nd time) listen to the song and u'll get what i mean
e|---------------------------------------------|
B|-16b17(x10 very fast)r16(x10)\11(x10)\9(x10)-|
G|---------------------------------------------|
D|---------------------------------------------|
A|---------------------------------------------|
E|---------------------------------------------|
Bridge

Guitar 1                      
e|----------------------|x2 e|---------| end on this the 2nd time
B|----------------------|   B|---------|
G|------999-----888888--|   G|---------|
D|--666-999-999-888888--|   D|--6-777--|
A|--666-777-999-666666--|   A|--6-777--|
E|--444-----777---------|   E|--4-555--|
                    
                            
then gtr 2 plays (riff2)

e|---------------------|
B|----4----4-----4---4-|
G|---4----4-----4---4--|
D|--6----6-----6---6---|
A|-6----------6--------|
E|---------------------|

u can also hear a 3d guitar playing this(while gtr 2 plays riff 2)

e|------------------|
B|------------------|
G|------------------|
D|------------------|
A|--11--9-11-13b14--|
E|------------------|


then gtr 1
e|------------------|
B|------------------|  
G|---9---88888888---|   
D|---9-9-88888888---|   
A|---7-9-66666666---|  
E|-----7------------|

then gtr 2
e|---------------------|
B|----4----4-----4---4-|
G|---4----4-----4---4--|
D|--6----6-----6---6---|
A|-6----------6--------|
E|---------------------|

Gtr 3: same as before

then gtr 1
e|---------------------|
B|---------------------|  
G|---9---8888----------|   
D|---9-9-8888--6-777---|   
A|---7-9-6666--6-777---|  
E|-----7-------4-555---|

Repeat riff 1 (only once) and verse 1, then

Guitar 1:
e|----------------------------------|x2
B|----------------------------------|
G|----------------------------------|
D|--99999999999999--66666666666666--|
A|--99999999999999--66666666666666--|
E|--77777777777777--44444444444444--|

repeat Pre-Chorus

repeat Chorus 2

then

Guitar 1                      
e|----------------------|x2 e|---------| end on this the 2nd time
B|----------------------|   B|---------|
G|------999-----888888--|   G|---------|
D|--666-999-999-888888--|   D|--6-777--|
A|--666-777-999-666666--|   A|--6-777--|
E|--444-----777---------|   E|--4-555--|

That's it. great song! rate it :p
Comments