Feeder - Piece By Piece Chords & Tabs

 

Piece By Piece Chords & Tabs

Feeder Chords & Tabs

Version: 1 Type: Tab 0 ratings
1 star 2 stars 3 stars 4 stars 5 stars
comments

Piece By Piece Tab

   
Song: Piece by Piece
Band: Feeder
Album: Echo Park
By: Dan

Main Riff,verses and choruses:

     Cm     Eb         Bbsus4      Fm

e------------------|-----------------------|
b------------------|--------------9p8------|
g------8-------8---|-----8------------10p8-|
d-------10---8---8-|-------8---10----------|
a---10-----6-------|---8-----8-------------|
E-8----------------|-6---------------------|

Bridge: (cos nothing ever lasts forever)

      Ab              C7      Bb
[ Tab from: http://www.guitartabs.cc/tabs/f/feeder/piece_by_piece_tab.html ]
e-----------------|-----------------|
b-----4-------4---|-----4-------6---|
g---5---5---5---5-|---3---3---7---7-|
d-6-------6-------|-5-------8-------|
a-----------------|-----------------|
E-----------------|-----------------|


Fill: (where drum solo comes in)

   Cm    Eb    Bsus4  Fm

e------------|------------|
b------------|------------|
g------8-----|-----8------|
d----------8-|---------10-|
a---10---6---|---8---8----|
E-8----------|-6----------|

Other verse:( cos its worth fightin for)

       C                   Fm

e-----------------|-----------------|
b-----5-------5---|-----6-------6---|
g---5---5---5---5-|---5---5---5---5-|
d-5-------5-------|-6-------6-------|
a-----------------|-----------------|
E-----------------|-----------------|
Comments