Feeder - Pictures Of Pain Chords & Tabs

 

Pictures Of Pain Chords & Tabs

Feeder Chords & Tabs

Version: 1 Type: Tab 0 ratings
1 star 2 stars 3 stars 4 stars 5 stars
comments

Pictures Of Pain Tab

   
SONG: PICTURES OF PAIN (original)
TAB BY: ALEX BALL (Al_Fish18@hotmail.com)
NOTES: DROP D TUNING

INTRO/VERSE RIFF:

E|--------------------|
B|-----15---------13--|
G|-----14-----12--12--|
D|--0------0----------|
A|--0------0----------|
D|--0------0----------|

LINK TO CHORUS: Listen to CD for rhythm

E|---------------------------------|
B|---------------------------------|
G|---------------------------------|
D|---------------------------------|
A|-----2-2-2-2--2-2-2-2-2-3-5-5-5--|
D|--0h-2-2-2-2--2-2-2-2-2-3-5-5-5--|

CHORUS:

CHORDS YOU NEED TO KNOW:

    D   C9  G/B G/Bb
E|--2---3---3---3---|
B|--3---3---3---3---|
G|--2---0---0---0---|
D|--0---2---0---0---|
A|--0---3---2---1---|
D|--0---------------|
[ Tab from: http://www.guitartabs.cc/tabs/f/feeder/pictures_of_pain_tab.html ]
D              C9            G/B              C9
  Just want to talk about it, think about it, will you listen,
D                 C9        G/B           G/B     C9 D
  You're like the Mona-lisa, I can't find, (I can't see it)
D            C9             G/B              C9
  I like the way you look at me, It's like I let myself free,
D    C9       G/B   G/B      C9     D
  Pictures of pain (pictures of pain)

INTERLUDE:

Section 1: (Guitar alone)

    C9       Dmaj       Bmaj
E|--------------2p-0--------------------|
B|-----3-------------2-----4-------4----|
G|---------------------------4-------4--|
D|-----------0----------2-------2-------|
A|--3-----3-----------------------------|
D|--------------------------------------|

Section 2:

E|-------------------------------------|
B|-------------------------------------|
G|-------------------------------------|
D|--2--2-2s--4--4-4s--5--5-5--11~~~----|
A|--0--0-0---0--0-0---0--0-0---0--0-0--|
D|-------------------------------------|
Comments