Feeder - Morning Life Chords & Tabs

 

Morning Life Chords & Tabs

Feeder Chords & Tabs

Version: 1 Type: Tab 0 ratings
1 star 2 stars 3 stars 4 stars 5 stars
comments

Morning Life Tab

   
Intro/Verse:
B     G     A
B     G     E

Repeat 2x

B
A new day has begun
G                         A
And taken us now
B
Morning life is here
G                                  E
Touch, sight and sound

Pre-Chorus:
G    B     A

G                 B               A
But you feel nothing is real
G                                   B                 A
Your flesh and bone, But nothing is real

Chorus:
G  D  A  E

G    D  A                        E             G  D
Today, this could be the only day
A                              E
Cant let the moment get away
G    D  A                        E             G  D
Cause this could be the only way
A                E
So call on , call on me,

Middle: Not sure i dont actually think there's any guitars playin just a sampler.

Solo:
Not 100% but close enough
[ Tab from: http://www.guitartabs.cc/tabs/f/feeder/morning_life_tab.html ]
e-------------------------------------------------------------------|
b-------------------------------------------------------------------|
g--12-12-12-12-14-12-11-11-11-11-------9-9-9-9---14-14-12-11-9-9----|
d----------------------------------12-12----------------------------|
a-------------------------------------------------------------------|
e-------------------------------------------------------------------|


e-------------------------------------------------------------------|
b-------------------------------------------------------------------|
g--12-12-12-12-14-12-11-11-11-11-------9-9-9-9-7-6-4-2-0------------|
d---------------------------------12--12----------------------------|
a-------------------------------------------------------------------|
e-------------------------------------------------------------------|

End by pickin G D and A Chords


intro/verse
pre-chorus
chorus
intro/verse
pre-chorus
chorus
middle
solo
chorus

Rest of lyrics

Verse2:

Tempers of the world
Dragging you down
The Chemistry of life
The touch of a hand

Middle bit:
Your fading out, dont fade, your coming back
Your fading out, dont fade, your coming back
Your fading out, dont fade, your coming back
Your fading out, dont fade
Your coming back

Well there you go any corrections please let me know theworldiscontraband@hotmail.com
Cheers Chris
Comments