Feeder - Just The Way Im Feeling Chords & Tabs

 

Just The Way Im Feeling Chords & Tabs

Feeder Chords & Tabs

Version: 3 Type: Tab 0 ratings
1 star 2 stars 3 stars 4 stars 5 stars
comments

Just The Way Im Feeling Tab

KEY:  M = MUTED

Intro/Verse Chords

E|----------------
B|----3---3---3---
G|----2---2---2---
D|----M---2---0---
A|----2---0---2---
E|------------3---

Pre-Chorus Chords

E|----------------------------
B|----------------------------
G|------------4---------------
D|----4---5---4---5---4---5---
A|----4---5---2---5---4---5---
E|----2---3-------3---2---3---

Chorus Chords

E|------------------------------------
B|--------------------------------3---
G|----2---4-----------2---4-------2---   x2
D|----2---4---0---4---2---4---0---0---
A|----0---2---2---4---4---2---2-------
E|------------3---2-----------3-------

Bridge Chords
[ Tab from: http://www.guitartabs.cc/tabs/f/feeder/just_the_way_im_feeling_tab_ver_3.html ]
E|------------------------------------------------------------------- 
B|------------------------------------------------------------------- 
G|--4-4-4-4-2-2-2-2-----------------2-2-2-2-2---4-------------------- 
D|--4-4-4-4-2-2-2-2-5-5-5-5-4-4-4-4-2-2-2-2-2---4---5-5-5-5-5-5-5-5-- 
A|--2-2-2-2-0-0-0-0-5-5-5-5-4-4-4-4-0-0-0-0-0---2---5-5-5-5-5-5-5-5-- 
E|------------------3-3-3-3-2-2-2-2-----------------3-3-3-3-3-3-3-3--
 
E|------------------------------------------------------------------- 
B|------------------------------------------------------------------- 
G|--4-4-4-4-2-2-2-2-------------------------------------------------- 
D|--4-4-4-4-2-2-2-2-5-5-5-5-4-4-4-4-2-2-2-2-2---4---5-5-5-5-5-5-5-5-- 
A|--2-2-2-2-0-0-0-0-5-5-5-5-4-4-4-4-2-2-2-2-2---4---5-5-5-5-5-5-5-5-- 
E|------------------3-3-3-3-2-2-2-2-0-0-0-0-0---2---3-3-3-3-3-3-3-3--
 
E|---------------------------- 
B|---------------------------- 
G|--2-2-2-2-2---4------------- 
D|--2-2-2-2-2---4---5---------
A|--0-0-0-0-0---2---5---------
E|------------------3---------


If you listen to the song, then you can 
decide the order of each of these riffs.  
Feel free to make any changes that you 
think will make the tab sound better.  
This is my first tab, so if its rubbish, 
then I am sorry!  Thanks to whoever 
uses this tab.  :)
Comments