Feeder - Just A Day Chords & Tabs

 

Just A Day Chords & Tabs

Feeder Chords & Tabs

Version: 10 Type: Tab 0 ratings
1 star 2 stars 3 stars 4 stars 5 stars
comments

Just A Day Tab

   
-------------------------------------------------------------------------------
			   	Just a day - Feeder
-------------------------------------------------------------------------------

Tabbed by: Mikkel
Email: pineapple_telephone@hotmail.com

Key:
 /  slide up
 \  slide down
 h  hammer
 p  pull-off
 <  Bend (how much to bend)
 +  harmonic
 x  Palm Mute (undeneath note)
 *  Let note Ring on

OK im gonna tab the lead part and the rythm chords completely separately
because sometimes people get confused. im gonna tab out the chords properly
as well, instead of putting E5 or whatever.

this is my first tab aswell, bring it on.

Tuning:

EADGBe, Standard tuning

Structure:

Intro 			x1
Intro continued 	x2
Verse 			x2
Pre - Chorus 		x4
Chorus			x2
Intro continued 	x2
(short pause)
Verse 			x2
Pre - Chorus		x4
Chorus 			x2
Bridge/Solo part 1	x1
Bridge/Solo Part 2	x1
Bridge/Solo Part 1	x1
Fill in 1		x2
Chorus 			x4
Outro			x2
End effect		x1

The "end effect" is hard to describe, you play the harmonic
on the G string 5th fret, then play the same note on the E
string. Then you bend the note on the E string until the 
frequencies of the 2 notes clash, and make the vibrato 
effect thats on the last note. once you have played it
correctly you will see what i mean.

.-------------.
|             |
| Lead guitar |
|             |
.-------------.

Intro (solo)

e|---------------------------------------------------------|
B|---------------------------------------------------------|
G|-11-11-9-9--11-11-9----11-11-9-9-13-11-9-----------------| 
D|--------------------9--------------------11--------------|
A|---------------------------------------------------------|
E|---------------------------------------------------------|

Intro continued. (rythm guitar and drums come in)

e|---------------------------------------------------------|
B|---------------------------------------------------------|
G|-11-11-9-9--11-11-9----11-11-9-9-13-11-9-----------------|
D|--------------------9--------------------11--------------|
A|---------------------------------------------------------|
E|---------------------------------------------------------|

Verse

e|---------------------------------------------------------|
B|---------------------------------------------------------|
G|-11-11-9-9--11-11-9----11-11-9-9-13-11-9-----------------|
D|--------------------9--------------------11--------------|
A|---------------------------------------------------------|
E|---------------------------------------------------------|

e|---------------------------------------------------------|
B|---------------------------------------------------------|
G|-11-11-9-9--11-11-9----11-11-11-11-9-13-11-11-11-9-------|
D|--------------------9------------------------------------|
A|---------------------------------------------------------|
E|---------------------------------------------------------|

Pre - Chorus

e|---------------------------------------------------------|
B|---------------------------------------------------------|
G|-8-9-9-9-9-9-9-9-8-9-9-9-9-9-9---------------------------| Repeat,
D|---------------------------------------------------------| I think its 4 x
A|---------------------------------------------------------| not difficult to
E|---------------------------------------------------------| work out how many

Chorus

e|---------77777777----------------------------------------|
B|99999999-77777777-10101010101010101010-------------------|(thats 10-10-10 not 
G|99999999----------9-9-9-9-9-9-9-9-9-9--------------------|1-0-1-0, i put them
D|---------------------------------------------------------|like that to indicate
A|---------------------------------------------------------|the same speed)
E|---------------------------------------------------------|

e|---------7777777777777777-55555555-----------------------|
B|99999999-7777777777777777-55555555-----------------------|
G|99999999-------------------------------------------------|
D|---------------------------------------------------------|
A|---------------------------------------------------------|
E|---------------------------------------------------------|

Bridge/Solo whatever you wanna call it !PART 1!

e|---------------------------------------------------------|
B|---------------------------------------------------------|
G|9-9-9-8-8-8-6-6-6-4-4-4-4-4-4-4-4------------------------|
D|---------------------------------------------------------|
A|---------------------------------------------------------|
E|---------------------------------------------------------|

e|---------------------------------------------------------|
B|---------------------------------------------------------|
G|9-9-9-8-8-8-9-9-9-11-11-11-------------------------------|
D|---------------------------------------------------------|
A|---------------------------------------------------------|
E|---------------------------------------------------------|

!PART 2!

e|---------------------------------------------------------|
B|---------------------------------------------------------|
G|9-9-9-8-8-8-6-6-6-4-4-4-4-4-4-4-4------------------------|
D|---------------------------------------------------------|
A|---------------------------------------------------------|
E|---------------------------------------------------------|

e|---------------------------------------------------------|
B|---------------------------------------------------------|
G|9-9-9-8-8-8-9-9-9-11-11-11-11-13-13-13-13-13-13-13-13----|
D|---------------------------------------------------------|
A|---------------------------------------------------------|
E|---------------------------------------------------------|

Fill in 1
(no rythm guitar)
[ Tab from: http://www.guitartabs.cc/tabs/f/feeder/just_a_day_tab_ver_10.html ]
e|---------------------------------------------------------|
B|99999999-77777777-1010101010101010-----------------------|
G|---------------------------------------------------------|
D|---------------------------------------------------------|
A|---------------------------------------------------------|
E|---------------------------------------------------------|

e|---------------------------------------------------------|
B|99999999-7777777777777777-55555555-----------------------|
G|---------------------------------------------------------|
D|---------------------------------------------------------|
A|---------------------------------------------------------|
E|---------------------------------------------------------|

Outro

e|---------------------------------------------------------|
B|---------------------------------------------------------|
G|11-11-9-9-11-11-9-9-13-11-9-9----------------------------|
D|---------------------------------------------------------|
A|---------------------------------------------------------|
E|---------------------------------------------------------|

Ending effect

e|----15<(bend-slightly-and-then-the-2-notes-will-go-"wavy"|
B|---------------------------------------------------------|
G|5+*------------------------------------------------------|
D|---------------------------------------------------------|
A|---------------------------------------------------------|
E|---------------------------------------------------------|

.--------------.
|              |
| Rythm guitar |
|              |
.--------------.

Intro 			x1
Intro continued 	x2
Verse 			x4
Pre - Chorus 		x1
Chorus			x2
Intro continued 	x2
(short pause)
Verse 			x4
Pre - Chorus		x1
Chorus 			x1
Bridge/Solo 		x3
Fill in 1		x1
Chorus 			x2
Outro			x6

Ive made some effort to tab out the rythm i prefer to play,
it makes it sound more interesting rather than just the
same rythm. its sort of syncopated with the rythm of the
main riff.

Intro

e|---------------------------------------------------------|
B|---------------------------------------------------------|
G|---------------------------------------------------------|
D|--(You-Dont-play-anything!)------------------------------|
A|---------------------------------------------------------|
E|---------------------------------------------------------|

Intro continued + verse

e|---------------------------------------------------------|
B|---------------------------------------------------------|
G|------------------------9--999-9--99-9999----------------|
D|7--777-7--7-7--777-7-9--9--999-9--99-9999-9--7-----------|
A|7--777-7--7-7--777-7-9--7--777-7--77-7777-9--7-----------|
E|5--555-5--5-5--555-5-7--7--777-7--77-7777-7--5-----------|

Pre - chorus

e|---------------------------------------------------------|
B|---------------------------------------------------------|
G|---------------9-----------------------------------------|
D|11-----7-------9-------11------6-------7-----------------|
A|11-----7-------7-------11------6-------7-----------------|
E|9------5-------7-------9-------4-------5-----------------|

Chorus

e|---------------------------------------------------------|
B|---------------------------------------------------------|
G|9999-----------------------------------------------------|
D|999999997777777777777777---------------------------------|
A|777799997777777777777777---------------------------------|
E|777777775555555555555555---------------------------------|

e|---------------------------------------------------------|
B|---------------------------------------------------------|
G|---------------------------------------------------------|
D|1111111111111111444444449999999977777777-----------------|
A|1111111111111111444444449999999977777777-----------------|
E|9-9-9-9-9-9-9-9-222222227777777755555555-----------------|

e|---------------------------------------------------------|
B|---------------------------------------------------------|
G|9999-----------------------------------------------------|
D|999999997777777777777777---------------------------------|
A|777799997777777777777777---------------------------------|
E|777777775555555555555555---------------------------------|

e|---------------------------------------------------------|
B|---------------------------------------------------------|
G|---------------------------------------------------------|
D|11111111111111114444444477777777-------------------------|
A|11111111111111114444444477777777-------------------------|
E|9-9-9-9-9-9-9-9-2222222255555555-------------------------|

Bridge/Solo

e|---------------------------------------------------------|
B|---------------------------------------------------------|
G|---------------------------------------------------------|
D|9---11---6---7----11---9---6---7-------------------------|
A|9---11---6---7----11---9---6---7-------------------------|
E|7---9----4---5----9----7---4---5-------------------------|

Fill in 1

e|---------------------------------------------------------|
B|---------------------------------------------------------|
G|-You-dont-play-anything!---------------------------------|
D|---------------------------------------------------------|
A|---------------------------------------------------------|
E|---------------------------------------------------------|

Outro

e|---------------------------------------------------------|
B|---------------------------------------------------------|
G|---------------------------------------------------------|
D|7--777-7--7-7-----------------(7)*-----------------------|
A|7--777-7--7-7-----------------(7)*-----------------------|
E|5--555-5--5-5-----------------(5)*-----------------------|

                                 ^Hold last chord.

The end. i hope you have enjoyed todays performance.
Comments