Feeder - Just A Day Chords & Tabs

 

Just A Day Chords & Tabs

Feeder Chords & Tabs

Version: 1 Type: Tab 5 ratings
1 star 2 stars 3 stars 4 stars 5 stars
comments

Just A Day Tab

---------------------------------------------------------
Artist:    Feeder
Track:     Just a Day
Album:     Seven Days in the Sun (B side) / Just a Day EP
Tabbed By: Marc Hutchins (hutchy2j@btinternet.com)
---------------------------------------------------------

INTRO RIFF
----------

e|---------------------------------------------------------------------------|
B|---------------------------------------------------------------------------|
G|--11--11--9--9--11--11--9-----11--11--9--9--11^13--11--9-------------------|
D|---------------------------9------------------------------11---------------|
A|---------------------------------------------------------------------------|
E|---------------------------------------------------------------------------|

INTRO CHORDS (comes in after riff is played first time)
------------

e|---------------------------------------------------------------------------|
B|---------------------------------------------------------------------------|
G|---------------------------------------9-9-9-9-9-9-9-9-9-9-9-9-9-9-9-9-9-9-|
D|--7-7-7-7-7-7-7-7-7-7-7-7-7-7-7-7-7-7--9-9-9-9-9-9-9-9-9-9-9-9-9-9-9-9-9-9-|
A|--7-7-7-7-7-7-7-7-7-7-7-7-7-7-7-7-7-7--7-7-7-7-7-7-7-7-7-7-7-7-7-7-7-7-7-7-|
E|--5-5-5-5-5-5-5-5-5-5-5-5-5-5-5-5-5-5--------------------------------------|

VERSE
-----

e|---------------------------------------------------------------------------|
B|---------------------------------------------------------------------------|
G|---------------------------------------9-9-9-9-9-9-9-9-9-9-9-9-9-9-9-9-9-9-|
D|--7-7-7-7-7-7-7-7-7-7-7-7-7-7-7-7-7-7--9-9-9-9-9-9-9-9-9-9-9-9-9-9-9-9-9-9-|
A|--7-7-7-7-7-7-7-7-7-7-7-7-7-7-7-7-7-7--7-7-7-7-7-7-7-7-7-7-7-7-7-7-7-7-7-7-|
E|--5-5-5-5-5-5-5-5-5-5-5-5-5-5-5-5-5-5--------------------------------------|

BRIDGE
------

e|---------------------------------------------------------------------------|
B|---------------------------------------------------------------------------|
G|----------------------------------9-9-9-9-9-9-9-9-9-9-9-9------------------|
D|--11-11-11-11-11-11--7-7-7-7-7-7--9-9-9-9-9-9-9-9-9-9-9-9------------------|
A|--11-11-11-11-11-11--7-7-7-7-7-7--7-7-7-7-7-7-7-7-7-7-7-7------------------|
E|---9--9--9--9--9--9--5-5-5-5-5-5-------------------------------------------|

e|---------------------------------------------------------------------------|
B|---------------------------------------------------------------------------|
G|---------------------------------------------------------------------------|
D|--11-11-11-11-11-11--6-6-6-6-6-6--7-7-7-7-7-7-7-7-7-7-7-7------------------|
A|--11-11-11-11-11-11--6-6-6-6-6-6--7-7-7-7-7-7-7-7-7-7-7-7------------------|
E|---9--9--9--9--9--9--4-4-4-4-4-4--5-5-5-5-5-5-5-5-5-5-5-5------------------|

CHORUS
------

e|---------------------------------------------------------------------------|
B|---------------------------------------------------------------------------|
G|--9-9-9-9-9-9--------------------------------------------------------------|
D|--9-9-9-9-9-9--9-9-9-9-9-9--7-7-7-7-7-7-7-7-7-7-7-7------------------------|
A|--7-7-7-7-7-7--9-9-9-9-9-9--7-7-7-7-7-7-7-7-7-7-7-7------------------------|
E|---------------7-7-7-7-7-7--5-5-5-5-5-5-5-5-5-5-5-5------------------------|

e|---------------------------------------------------------------------------|
B|---------------------------------------------------------------------------|
G|---------------------9-9-9-9-9-9-------------------------------------------|
D|--11-11-11-11-11-11--9-9-9-9-9-9--9-9-9-9-9-9--7-7-7-7-7-7-----------------|
A|--11-11-11-11-11-11--7-7-7-7-7-7--9-9-9-9-9-9--7-7-7-7-7-7-----------------|
E|---9--9--9--9--9--9---------------7-7-7-7-7-7--5-5-5-5-5-5-----------------|

e|---------------------------------------------------------------------------|
B|---------------------------------------------------------------------------|
G|--9-9-9-9-9-9--------------------------------------------------------------|
D|--9-9-9-9-9-9--9-9-9-9-9-9--7-7-7-7-7-7-7-7-7-7-7-7------------------------|
A|--7-7-7-7-7-7--9-9-9-9-9-9--7-7-7-7-7-7-7-7-7-7-7-7------------------------|
E|---------------7-7-7-7-7-7--5-5-5-5-5-5-5-5-5-5-5-5------------------------|
[ Tab from: http://www.guitartabs.cc/tabs/f/feeder/just_a_day_tab.html ]
e|---------------------------------------------------------------------------|
B|---------------------------------------------------------------------------|
G|---------------------------------------------------------------------------|
D|--11-11-11-11-11-11--6-6-6-6-6-6--7----------------------------------------|
A|--11-11-11-11-11-11--6-6-6-6-6-6--7----------------------------------------|
E|---9--9--9--9--9--9--4-4-4-4-4-4--5----------------------------------------|

POST CHORUS
-----------

e|---------------------------------------------------------------------------|
B|---------------------------------------------------------------------------|
G|--11--11--9--9--11--11--9-----11--11--9--9--11^13--11--9-------------------|
D|---------------------------9------------------------------11---------------|
A|---------------------------------------------------------------------------|
E|---------------------------------------------------------------------------|

e|---------------------------------------------------------------------------|
B|---------------------------------------------------------------------------|
G|--11--11--9--9--11--11--9-----11--11--9--9--11--13-------------------------|
D|---------------------------9-----------------------------------------------|
A|---------------------------------------------------------------------------|
E|---------------------------------------------------------------------------|

INTERLUDE
---------

e|---------------------------------------------------------------------------|
B|---------------------------------------------------------------------------|
G|--9-9-9-9-8-8-8-8-6-6-6-4-4-4-4--9-9-9-9-8-8-8-8-9-9-9-9-11-11-11----------|
D|---------------------------------------------------------------------------|
A|---------------------------------------------------------------------------|
E|---------------------------------------------------------------------------|

e|---------------------------------------------------------------------------|
B|---------------------------------------------------------------------------|
G|--9-9-9-9-8-8-8-8-6-6-6-4-4-4-4--9-9-9-9-8-8-8-8-9-9-9-9-11-11-13-13-13-13-|
D|---------------------------------------------------------------------------|
A|---------------------------------------------------------------------------|
E|---------------------------------------------------------------------------|

e|---------------------------------------------------------------------------|
B|---------------------------------------------------------------------------|
G|--9-9-9-9-8-8-8-8-6-6-6-4-4-4-4--9-9-9-9-8-8-8-8-9-9-9-9-11-11-11----------|
D|---------------------------------------------------------------------------|
A|---------------------------------------------------------------------------|
E|---------------------------------------------------------------------------|

ALTERNATIVE CHORUS
------------------

e|---------------------------------------------------------------------------|
B|--9-9-9-9-9-9-9-9-7-7-7-7-7-7-7-7-10-10-10-10-10-10-10-10-10-10-10-10------|
G|--9-9-9-9-9-9-9-9-9-9-9-9-9-9-9-9--9--9--9--9--9--9--9--9--9--9--9--9------|
D|---------------------------------------------------------------------------|
A|---------------------------------------------------------------------------|
E|---------------------------------------------------------------------------|

e|---------------------------------------------------------------------------|
B|--9-9-9-9-9-9-9-9-7-7-7-7-7-7-7-7-5-5-5-5-5-5-5-5-5-5-5-5-5-5-5------------|
G|--9-9-9-9-9-9-9-9-9-9-9-9-9-9-9-9-6-6-6-6-6-6-6-6-6-6-6-6-6-6-6------------|
D|---------------------------------------------------------------------------|
A|---------------------------------------------------------------------------|
E|---------------------------------------------------------------------------|


ORDER
-----
INTRO RIFF x1, then INTRO RIFF and INTRO CHORDS x2
VERSE x4
BRIDGE x1
CHORUS x1
POST CHORUS x1
VERSE x4
BRIDGE x1
CHORUS x1
INTERLUDE x1
ALTERNATIVE CHORUS x2
CHORUS x3

----------
This is everything you will need to play the song, follow the order and you
shouldn't really go wrong.  I haven't included the 2nd guitar's parts in this
tab.  Listen to a live version to see how it is played with only 1 guitar.
Please e-mail me with comments or corrections.  Cheers. :-)

===============================================================================
Comments