Feeder - Just A Day Chords & Tabs

 

Just A Day Chords & Tabs

Feeder Chords & Tabs

Version: 1 Type: Bass Tab 0 ratings
1 star 2 stars 3 stars 4 stars 5 stars
comments

Just A Day Bass Tab

   
im not sure if this is 100% if not privatemessage me plz.

Intro/Vese (x6)
g---------------------------------
d---------------------------------
a-4-4-4-4-4-4-4-4-2-2-2-2-2-2-2-2-
e---------------------------------

Bridge (x2)
g---------------------------------
d---------------------------------
a-4-4-4-4-0-0-0-0-2-2-2-2-2-2-2-2-
e---------------------------------
[ Tab from: http://www.guitartabs.cc/tabs/f/feeder/just_a_day_btab.html ]
Chorus part 1
g---------------------------------
d-2-2-2-2-------------------------
a---------2-2-2-2-0-0-0-0-0-0-0-0-
e---------------------------------

Chorus part 2
g---------------------------------
d---------------------------------
a-4-4-4-4-0-0-0-0-2-2-2-2-2-2-2-2-
e---------------------------------

For the whole chorus just do part 1 then straight inrto part 2 
(its just too long to write on the same line)

Comments