Feeder - Insomnia Chords & Tabs

 

Insomnia Chords & Tabs

Feeder Chords & Tabs

Version: 2 Type: Bass Tab 0 ratings
1 star 2 stars 3 stars 4 stars 5 stars
comments

Insomnia Bass Tab

Insomnia  by Feeder

in Drop D tuning

a very impressive 3 chord wonder

I have checked this against the guitar tab and it sounds spot on
so I'm almost positive its right.


intro and verse:

G-----------
D-----------
A---------------------------1-1-1-1111---
D--3-3-3-33-33-3333-0-0-0-0--------------


bridge:
("my poor brain")

A--0-1-1-11-111--0-1-1-11-111---
[ Tab from: http://www.guitartabs.cc/tabs/f/feeder/insomnia_btab_ver_2.html ]
Chorus:

A---3-3-3-5-5-5-1-1-1----------
D---------------------3-3-3----


watch for the end of the 2nd chorus...
(where the toms kick in just before the slower bit)
I think it goes

A---3-3-3-5-5-5-
D---------------3-3-3-3-3-3-3-3-3-3-3-3-3-3-3- 


the slowish bit is just the verse slowed down.

have a listen for the timing...
enjoy


Matt from Kretschmer

matt_roles@yahoo.com
Comments