Feeder - Helium Chords & Tabs

 

Helium Chords & Tabs

Feeder Chords & Tabs

Version: 1 Type: Bass Tab 0 ratings
1 star 2 stars 3 stars 4 stars 5 stars
comments

Helium Bass Tab

----------------------------------------------------------------------------
			     Helium - Feeder
----------------------------------------------------------------------------

Tabbed By: Tease
e-mail: bass113@msn.com

This is my version of Helium by Feeder. Am not sure it 100% correct, but it sounds gd.

Bass starts with drums on the intro.

Intro:

G|---------------|--------------|--------------|
D|---------------|--------------|--------------|
A|6-6-6-6-6-6-6-6|--------------|--------------|
E|---------------|--4--4--4--4--|--7--7--7--7--|

Verse Riff1:
[ Tab from: http://www.guitartabs.cc/tabs/f/feeder/helium_btab.html ]
G|---------------|--------------|--------------|
D|---------------|--------------|--------------|
A|6-6-6-6-6-6-6-6|--------------|--------------|
E|---------------|--4--4--4--4--|--7--7--7--7--|

Verse Riff2:

G|---------------|--------------|--------------|
D|8-8-8-8-8-8-8-8|--------------|--------------|
A|---------------|--6--6--6--6--|--9--9--9--9--|
E|---------------|--------------|--------------|

Chorus:

G|---------------|---------------|---------------|---------------|
D|---------------|---------------|---------------|---------------|
A|---------------|---------------|---------------|---------------|
E|7-7-7-7-7-7-7-7|2-2-2-2-2-2-2-2|5-5-5-5-5-5-5-5|0-0-0-0-0-0-0-0|

Order:

Intro       (x2)
Verse Riff1 (x3)
Verse Riff2 (x1)
Verse Riff1 (x3)
Verse Riff2 (x1)
Chorus      (x2)
Verse Riff1 (x5)
Verse Riff2 (x1)
Verse Riff1 (x3)
Verse Riff2 (x1)
Chorus      (x4)
Pause
Verse Riff1 (x5)
Verse Riff2 (x2)
Chorus      (x6)
Comments