Feeder - Find The Colour Chords & Tabs

 

Find The Colour Chords & Tabs

Feeder Chords & Tabs

Version: 2 Type: Tab 0 ratings
1 star 2 stars 3 stars 4 stars 5 stars
comments

Find The Colour Tab

Band - FEEDER
Song - Find the Colour
Album - Comfort in Sound
Tabbed by James(jamesio17@hotmail.com)

i noticed that this song is not on the site, which i think is a crime!,
so i decided to tab it and put it on the site just to do the song justice

This is 100% correct, but since it is my first tab, i would appreciate some feedback
on the timing and strumming patterns for future use. Thanks.

Standard tuning (EADGBE)

This whole song is played with distortion, except the outro, which is played clean

intro - distortion

E---------------------------------------------------------------------------
B-2----2--2-2--3--3--3-3-3--3-----3--3--3--3--3-3--3-3-3--------------------
G-2--2----2-2--2--2--2-2-2--2--2-----2--2--2--2-2--2-2-2--------------------
D-2-------2-2--2--2--2-2-2--0--------0--0--0--0-0--0-0-0--------------------
A-0-------0-0--0--0--0-0-0--2--------2--2--2--2-2--2-2-2--------------------
E-------------------------------------------------------------------------x2

verse - distortion

E---------------------------------------------------------------------------
B-2----2--2-2--3--3--3-3-3--3-----3--3--3--3--3-3--3-3-3--------------------
G-2--2----2-2--2--2--2-2-2--2--2-----2--2--2--2-2--2-2-2--------------------
D-2-------2-2--2--2--2-2-2--0--------0--0--0--0-0--0-0-0--------------------
A-0-------0-0--0--0--0-0-0--2--------2--2--2--2-2--2-2-2--------------------
E-------------------------------------------------------------------------x6

chorus - distortion

E---------------------------------------------------------------------------
B-14-14--14-14-14--15-15-15--15-15-15--14-15-15--15-15-15--14---------------
G-14-14--14-14-14--14-14-14--14-14-14--14-14-14--14-14-14--14---------------
D---------------------------------------------------------------------------
A---------------------------------------------------------------------------
E---------------------------------------------------------------------------

E---------------------------------------------------------------------------
B-15-15--15-15-15--17-14-14--14-14-14--15-15-15--15-15-15--14---------------
G-14-14--14-14-14--14-14-14--14-14-14--14-14-14--14-14-14--14---------------
D---------------------------------------------------------------------------
A---------------------------------------------------------------------------
E---------------------------------------------------------------------------


                       "feels, so damn good"
E---------------------------------------------------------------------------
B-15-15--15-15--15--14-15---------------------------------------------------
G-14-14--14-14--14--14-14---------------------------------------------------
D---------------------------------------------------------------------------
A---------------------------------------------------------------------------
E---------------------------------------------------------------------------


"find the colour" - repeat the intro

verse x4 instead of x6

chorus

bridge - distortion (the numbers in brackets are simply for rhythm,
so below, bend the 11 twice)
[ Tab from: http://www.guitartabs.cc/tabs/f/feeder/find_the_colour_tab_ver_2.html ]
                                             "so damn good"
E---------------------------------------------------------------------------------------------
B---------------------------------------------------------------------------------------------
G-12-----11b(11)(11)---------------12--14s9----12-------11b(11)(11)------------------12-14s18-
D---------------------12s11s19--------------------------------------12s11s19------------------
A---------------------------------------------------------------------------------------------
E---------------------------------------------------------------------------------------------


solo - distortion

E-------------------------------------------------------------------------------
B--15-14--12-15-14--12-17-15--14-15-14--12--14-12--11-9-7--6s19--18--16--14--16-
G------------------------------------------------------------------------14--12-
D--12-11---9-12-11---9-14-12--11-12-11---9--12-10---9-7-5--4s17--16--14--12--14-
A-------------------------------------------------------------------------------
E-------------------------------------------------------------------------------


verse - x4 instead of x6

chorus x2

outro - clean

E------5---------------5-----------5-----------5------5---------5------5------5-
B----0--------------0------0-----0-----------3------3--------0------0------0----
G--0-----0---------------------0------0-----------------------------------------
D----------4--4-------------------------4---------4-----------------------------
A----------------0----------------------------------------0-------0------0------
E-------------------------------------------------------------------------------

E------5---------5-----5--------5------5------5------5---------5-------5----
B----0---------3-----3-------0------0------0-------0---------3------3-------
G--0-----0---------------------------------------0-----0--------------------
D----------4-------4-------------------------------------4--------4---------
A--------------------------0------0------0----------------------------------
E---------------------------------------------------------------------------

E-------5------5------5------5--------5------5------------------------------
B-----0------0------0------0--------3------3-------0------------------------
G------------------------0------0------------------6------------------------
D---------------------------------4-----4----------7------------------------
A--0-------0------0--------------------------------7------------------------
E--------------------------------------------------5------------------------


That should be correct, let me know if i need to make any changes

LYRICS

find the coloure sight and sound
a new explosion comes around
anaesthetic for the mind
hear the voice that soothes away the pain
television satellite
conversation running dry
sending back another text
holding onto words you might regret
you know you might regret

'cause

now i can see that i love all the things
that you do with each day
and it feels 
so damn good
every second that passes me by
with the blink of an eye
it just feels 
so damn good

find the colour
find the colour

lookiing for something new
a taste of life to pull you through
defences down you're feeling low
a change in feeling comes around again
it's coming round again

'cause

now i can see that i love all the things
that you do with each day
and it feels 
so damn good
every second that passes me by
with the blink of an eye
it just feels 
so damn good

so damn good

read the papers yesterday
they say the bubble boy's ok
another day of rain to come
we're sitting back still waiting for the sun
waiting for the sun

'cause

now i can see that i love all the things
that you do with each day
and it feels 
so damn good
every second that passes me by
with the blink of an eye
it just feels 
so damn good

'cause

now i can see that i love all the things
that you do with each day
and it feels 
so damn good
every second that passes me by
with the blink of an eye
it just feels 
so damn good
Comments