Feeder - Echo Park Chords & Tabs

 

Echo Park Chords & Tabs

Feeder Chords & Tabs

Version: 1 Type: Tab 0 ratings
1 star 2 stars 3 stars 4 stars 5 stars
comments

Echo Park Tab

   
=================================================================================================
FEEDER TAB: By Alex Ball (Al_Fish18@hotmail.com)
=================================================================================================
ECHO PARK TRACKS:
=================================================================================================
Song: STANDING ON THE EDGE
Tab By: Alex Ball (Al_Fish18@hotmail.com)
Notes: Drop D Tuning

Intro: Footsteps "Where's this bit, na we're in the wrong bit"

Distant, muffled guitar

E|--------------------------|
B|--------------------------|
G|--------------------------|
D|--------------------------|
A|--5-5--5-5-5--5-5-5--etc--|
D|--0-0--0-0-0--0-0-0--etc--|

Play these notes, and move from full bass to full treble on a wah-wah

VERSE:

GTR 1:

E|---------------------------|
B|---------------------------|
G|---------------------------|
D|---------------------------|
A|--3-5-3-5-3-5-3-5-3-3-3-3--|
D|--0-0-0-0-0-0-0-0-0-0-0-0--|

GTR 2:

E|---------------------------------------|
B|---------------------------------------|
G|--------------------------10-10-10-10--|
D|--10-12-10-12-10-12-10-12-10-10-10-10--|
A|---------------------------------------|
D|---------------------------------------|

INTERLUDE: (YEAH!!)

First/Third time:

    F5         F#5
E|---------------------|
B|---------------------|
G|---------------------|
D|--3-3-3-3--3--4-4-4--|
A|--3-3-3-3--3--4-4-4--|
D|--3-3-3-3--3--4-4-4--|

Second/Fourth time:

    F5         Ab5
E|---------------------|
B|---------------------|
G|---------------------|
D|--3-3-3-3--3--6-6-6--|
A|--3-3-3-3--3--6-6-6--|
D|--3-3-3-3--3--6-6-6--|

CHORUS:

Chords:

    Am  G   F   Em
E|--0---3---1---0---|
B|--1---3---1---0---|
G|--2---0---2---0---|
D|--2---0---3---2---|
A|--0---5---3---2---|
D|------5-------2---|

Am         G          F
When your all by yourself
Em               F
Standing on the edge of the world
Am      G           F
Take a look at yourself
       Em     F
Don't fall back in

OUTRO:

As interlude

=================================================================================================
Song: BUCK ROGERS
Tab by: Alex Ball (Al_Fish18@hotmail.com)

VERSE RIFF/INTRO:

GTR 1:

   Emaj                           Ab5   A5
E|----------------------------------------------|
B|----------------------------------------------|
G|----------------------------------------------|
D|-14-14-14-14--14-14-14-14--14---6-6-6--7-7-7--|
A|-11-11-11-11--11-11-11-11--11---6-6-6--7-7-7--|
E|--0--0--0--0---0--0--0--0---0---4-4-4--5-5-5--|

GTR 2:

    Emaj              Ab5     A5
E|--------------------------------------|
B|--12--12--12--12----11--11--10--10----|
G|-----9---9---9---9-----9---9---9---9--|
D|--------------------------------------|
A|--------------------------------------|
E|--------------------------------------|

Second half of chorus: (player, player)

Just play E5, Ab5, A5 with distortion

LINK TO CHORUS:

B5                A5
But I don't wanna talk about it anymore

E|---------------------|
B|---------------------|
G|---------------------|
D|--7b--7-7-7-7-7-etc--|
A|---------------------|
E|---------------------|

CHORUS:

               E5             B5
I think we're gonna make it,
               C#m             A5
I think we're gonna save it yeah,
              E5              B5
So don't you try and fake it,
    A5
Anymore, anymore

LINK TO VERSE:

           "Buck Rogers"
    E5     Ab5    A5
E|--------------------------|
B|---------4--4---5--5--5---|
G|---------6b-6b--7b-7b-7b--|
D|--------------------------|
A|--------------------------|
E|--------------------------|

BRIDGE:

F# Ab5/A5           C5           F#
         He's gotta brand new car
Ab5/A5                        Emaj
      He's gotta brand new car

INTERLUDE:

E|----------------------------------------|
B|----------------------------------------|
G|----------------------------------------|
D|----------------------------------------|
A|-11-11-11--9-9--9--9--6--6--6--4--4--4--|
E|--0--0--0--0-0--0--0--0--0--0--0--0--0--|

=================================================================================================
Song: PIECE BY PIECE
Tab By: Alex Ball (Al_Fish18@hotmail.com)
Notes: Capo Fret 3

Intro/verse:

Gtr 1:

    Am       C        Gsus4    Dm
E|---------------------------------1p-0------|
B|------1--------1--------1-------------3----|
G|--------2--------0--------0----2--------2--|
D|----2--------2--------0------0-------------|
A|--0--------3-------------------------------|
E|--------------------3----------------------|

Gtr 2:

Strum these chords:

    Am  C   Gsus4 Dm
E|--0---0---3-----1---|
B|--1---1---1-----3---|
G|--2---0---0-----2---|
D|--2---2---0-----0---|
A|--0---3---2---------|
E|----------3---------|

Interlude:

Gtr 1:

    F        C        Gsus4
E|---------------------------|
B|------1--------1--------1--| Repeat
G|----2---2------0--------0--|
D|--3----------2---2---------|
A|-----------3----------2----|
E|--------------------3------|

Gtr 2:

Strum these chords:

    F   C   Gsus4
E|--1---0---3---|
B|--1---1---1---| Repeat
G|--2---0---0---|
D|--3---2---0---|
A|------3---2---|
E|----------3---|

Chorus:

Gtr 1 and 2 play same as verse

Bridge: (But it's worth fighting for)

Strum these chords:

   A/C# A/B A/D
E|--------------|
B|--2---2---2---|
G|--2---2---2---|
D|--2---2---2---|
A|--4---2---5---|
E|--------------|

Example of chord changes:

A/C#                A/B         A/D
     But it's worth fighting for

Followed by interlude and then choruses.
=================================================================================================
Song: SEVEN DAYS IN THE SUN
Tab By: Alex Ball (Al_Fish18@hotmail.com)

INTRO/MAIN RIFF:

    G5       D5    A5    C5       B5 A5
E|---------------------------------------|
B|---------------------------------------|
G|-----------7-7-------------------------|
D|--5-5-5-5--7-7---7-7-7-10-10-10--9--7--|
A|--5-5-5-5--5-5---7-7-7-10-10-10--9--7--|
E|--3-3-3-3--------5-5-5--8--8--8--7--5--|

VERSE:

GTR 1: Play these bar chords: Gmaj, Dmaj, Amin, Cmaj
Chug the bottom three notes of the chord, and then hit the top notes on
the off beat. (listen to the cd)

    Gmaj      Dmaj      Amin     Cmaj
E|-------3---------5---------5----------8---|
B|-------3---------7---------5----------8---|
G|-------4----7-7--7---------5----------9---|
D|--5-5-------7-7-------7-7------10-10------|
A|--5-5-------5-5-------7-7------10-10------|
E|--3-3-----------------5-5-------8--8------|

GTR 2: Over second half of verse

E|--------------------------|
B|--12----12----12----------|
G|-----12----12----12--etc--|
D|--------------------------|
A|--------------------------|
E|--------------------------|

LINK TO CHORUS: "Seven Days In The Sun"

    Amaj9 Cmaj7
E|--0-----0---|
B|--0-----0---|
G|--6-----9---|
D|--7----10---|
A|--7----10---|
E|--5-----8---|

Amaj9                  Cmaj7
     Seven Days In the Sun

CHORUS:

G5, D5, A5, C5, B5, A5

Lead over chorus:

E|-----------------------------------------|
B|--12-12-12-12--13-13-13-13--15-15-15-15--|
G|--12-12-12-12--12-12-12-12--12-12-12-12--|
D|-----------------------------------------|
A|-----------------------------------------|
E|-----------------------------------------|

Bridge:

Chords:

    B/F# C/G G   G/F#
E|--2----3---3---3----|
B|--4----5---3---3----|
G|--4----5---0---0----|
D|--4----5---0---0----|
A|--2----3---2---0----|
E|--2----3---3---2----|

B/F#        C/G
    Staring though the crowd
         G          G/F#
    It's pulling me under ground
B/F#               C/G
    And it's gonna dig me out!

=================================================================================================
Song: WE CAN'T REWIND
Tab By: Alex Ball (Al_Fish18@hotmail.com)
Notes: Drop D Tuning

VERSE:

GTR 1:

Bass:  D        A        B        G
   E|--2-2-2-2--2-0-0-0--0-3-3-3--3-3-3-3--|
   B|--3-3-3-3--3-3-3-3--3-3-3-3--3-3-3-3--|
   G|--2-2-2-2--2-2-2-2--2-0-0-0--0-0-0-0--|
   D|--0-0-0-0--0-0-0-0--0-0-0-0--0-0-0-0--|
   A|--------------------------------------|
   D|--------------------------------------|


GTR 2: At the end of each phrase plays:

E|----------------|
B|----------------|
G|----------------|
D|--2-2-2-2b-2-0--|
A|----------------|
D|----------------|

CHORUS:

D5, A5, B5, G5
D5, A5, F#5, G5

Lead over Chorus:

E|------------------------------------------------------|
B|--15-15-15-15--15-15-15-15--15-15-15-17--17-17-17-17--|
G|--14-14-14-14--14-12-12-12--14-14-14------------------|
D|------------------------------------------------------|
A|------------------------------------------------------|
D|------------------------------------------------------|

Bridge:

F#5           G5       D5
  Stop taking me for a fool now
     F#              G5      D5
  Yeah I've got this feeling inside me
              A5       G5
  But I guess you knew

  We can work it out
D5       A5              G5
  We can find some place new

  We can't rewind

=================================================================================================
Song: TURN
Tab By: Alex Ball (Al_Fish18@hotmail.com)

INTRO:

GTR 1: With delay

E|-----------------------------------------------------------------------------|
B|-----------------------------------------------------------------------------|
G|------------------------------------------------8-8-----8-8-----8-8-----8-8--|
D|------13-13------13-13-----13-13-----13-13------8-8-----8-8-----8-8-----8-8--|
A|------11-11------11-11-----11-11-----11-11--6-6-6-6-6-6-6-6-6-6-6-6-6-6-6-6--|
E|--0-0--------0-0-------0-0-------0-0-----------------------------------------|

GTR 2: With delay

E|-----------------------------------------------------------------------------|
B|-----------------------------------------------------------------------------|
G|--13--let ring----------------------------12--let 
ring-----------------------|
D|-----------------------------------------------------------------------------|
A|-----------------------------------------------------------------------------|
E|-----------------------------------------------------------------------------|

VERSE:

Gtr 1:

E|-----------------------------------------------------------------------------|
B|-----------------------------------------------------------------------------|
G|------------------------------------------------8-8-----8-8-----8-8-----8-8--|
D|------13-13------13-13-----13-13-----13-13------8-8-----8-8-----8-8-----8-8--|
A|------11-11------11-11-----11-11-----11-11--6-6-6-6-6-6-6-6-6-6-6-6-6-6-6-6--|
E|--0-0--------0-0-------0-0-------0-0-----------------------------------------|

GTR 2:

E|-----------------------------------------------------------------------------|
B|-----------------------------------------------------------------------------|
G|--13--let ring----------------------------12--let 
ring-----------------------|
D|-----------------------------------------------------------------------------|
A|-----------------------------------------------------------------------------|
E|-----------------------------------------------------------------------------|

Gtr 1:

E|-----------------------------------------------------------------------------|
B|-----------------------------------------------------------------------------|
G|-----------------------------------------------------------------------------|
D|------13-13------13-13-----13-13-----13-13------9-9-----9-9-----9-9-----9-9--|
A|------11-11------11-11-----11-11-----11-11------9-9-----9-9-----9-9-----9-9--|
E|--0-0--------0-0-------0-0-------0-0--------7-7-7-7-7-7-7-7-7-7-7-7-7-7-7-7--|

GTR 2:

E|-----------------------------------------------------------------------------|
B|-----------------------------------------------------------------------------|
G|--13--let ring------------------------15-16---11--let 
ring-------------------|
D|-----------------------------------------------------------------------------|
A|-----------------------------------------------------------------------------|
E|-----------------------------------------------------------------------------|

LINK TO CHORUS:

Gtr 1:

C#m, A

Gtr 2:

E|-------------------|
B|-------------------|
G|-------------------|
D|--14-13-14-13--etc-|
A|-------------------|
E|-------------------|

CHORUS:

Gtr 1: Strum these chords:

    B  C#m  A   E
E|--7---9---5---0---|
B|--7---9---5---0---|
G|--8---9---6---1---|
D|--9--11---7---2---|
A|--9--11---7---2---|
E|--7---9---5---0---|

Gtr 2:
[ Tab from: http://www.guitartabs.cc/tabs/f/feeder/echo_park_tab.html ]
    B                                               C#m
E|--11-11-11-11--11-11-11-11--11-11-11-11--9-9-9-9--12-12-12-12--12-12-12-12--|
B|----------------------------------------------------------------------------|
G|----------------------------------------------------------------------------|
D|----------------------------------------------------------------------------|
A|----------------------------------------------------------------------------|
E|----------------------------------------------------------------------------|

                              A                                       E
E|--12-12-12-12--11-11-11-11--9-9-9-9--9-9-9-9--9-9-9-9--11-11-12-12--7-7-7-7--7-7-7-7--|
B|--------------------------------------------------------------------------------------|
G|--------------------------------------------------------------------------------------|
D|--------------------------------------------------------------------------------------|
A|--------------------------------------------------------------------------------------|
E|--------------------------------------------------------------------------------------|

Bridge: So come on, give in

Ab5, A5, E5
Ab5, A5

=================================================================================================
Song: CHOKE
Tab by: Alex Ball (Al_Fish18@hotmail.com)
Notes: "s" means slide finger to number fret (eg: "s7" means slide to fret 
7)

Intro/Riff:

   G5  E  G5        F5 E  G5
E|----------------------------------|
B|----------------------------------|
G|----------------------------------|
D|--5-----3---------5-----3---------|
A|--5-----3--drums--5-----3---------|
E|--3--0--1---------3--0--1--s7-s3--|

Verse:

Gtr 1:

    G5      F5/C
E|-------------------|
B|-------------------|
G|-------------------| Repeat
D|--5---5--s10--10---|
A|--5---5---s8---8---|
E|--3---3---s8---8---|

Gtr 2:

    G5       F5/C     G5       F5/C
E|--------------------------------------|
G|--6-6-6-6--6-6-6-6--6-6-6-6--6-5-5-5--| Repeat
B|--------------------------------------|
D|--------------------------------------|
A|--------------------------------------|
E|--------------------------------------|

Link to chorus (CHOKE!):

Play main riff (see intro)

Chorus:

Gtr 1:

C5                     D5     Bb5
  You're the only pill I take
C5                        D5         Bb5
  Lift me up to where the clouds are snow
C5                           D5     Bb5
  Cause your the only thrill I feed
C5                          D5         Bb5
  Ease the pressure and the whole thing flows

Gtr 2:

    C5                        D5           Bb5
E|--12-12-12-12--12-12-12-12--10-10-10-10--10-10-10-10--|
B|--13-13-13-13--13-13-13-13--13-13-13-13--13-13-13-13--|
G|------------------------------------------------------|
D|------------------------------------------------------|
A|------------------------------------------------------|
E|------------------------------------------------------|

Bridge:

Chords used: (not in order)

    C5  E5  F#5 G5  Ab5 Eb5
E|--------------------------|
B|--------------------------|
G|--5-------------------8---|
D|--5---2---4---5---6---8---|
A|--3---2---4---5---6---6---|
E|------0---2---3---4-------|

First cycle:

C5, E5, F#5, G5, Eb5

Second cycle:

C5, F#5, G5, Ab5, Eb5

Outro:

   G5  E  G5
E|-----------|
B|-----------|
G|-----------|
D|--5-----3--|
A|--5-----3--|
E|--3--0--1--|

=================================================================================================
Song: Oxygen
Tab by: Alex Ball (Al_Fish18@hotmail.com)

VERSE RIFF: There are slight variations such as playing the 2nd string open 
also.

E|------------------------------------|
B|------------------------------------|
G|------0-----0----------0-----0------|
D|----4-----4-----4----5-----5-----5--|
A|--2-----2-----2----3-----3-----3----|
E|------------------------------------|

Holds C5 before chorus and then:

CHORUS:

Gmaj, Dmaj, Amin, Cmaj

BRIDGE:

E|----------------------------------------------------------|
B|----------------------------------------------------------|
G|--------------------------------------6-6-6-6--6-6-6-6----|
D|--6-6-6-6--6-6-6-6--6-6-6-6--6-6-6-6--6-6-6-6--6-6-6-6----|
A|--0-0-0-0--0-0-0-0--0-0-0-0--0-0-0-0--4-4-4-4--4-4-4-4----|
E|----------------------------------------------------------|

=================================================================================================
Song: TELL ALL YOUR FRIENDS
Tab By: Alex Ball (Al_Fish18@hotmail.com)

Bass line: (For reference)

G|----------------------------|
D|----------------------------|
A|--------3-3--0-0-0-1-0------|
E|--1-1-1----------------1-0--|

Gtr 1:

E|--------------|
B|--------------|
G|--9-let ring--|
D|--------------|
A|--------------|
E|--------------|

Gtr 2:

E|---------------|
B|---------------|
G|------0-----0--| Etc
D|---------------|
A|----3-----3----|
E|--1-----1------|

Link to chorus: (So I see the hands and the pale blue sky)

    Bb               F                C               G
E|------------------------------------------------------------------------|
B|------------------------------------------------------------------------|
G|------0-----0----------0-----0----------0-----0----------0------0-------|
D|----3-----3-----3---------------------5-----5-----5---------------------|
A|--1-----1-----1------3-----3-----3--3-----3-----3------5------5------5--|
E|-------------------1-----1-----1---------------------3------3------3----|

    Bb               F                C
E|----------------------------------------------------------------------|
B|----------------------------------------------------------------------|
G|------0-----0----------0-----0----------0-----0----------0-----0------|
D|----3-----3-----3---------------------5-----5-----5----5-----5-----5--|
A|--1-----1-----1------3-----3-----3--3-----3-----3----3-----3-----3----|
E|-------------------1-----1-----1--------------------------------------|

Riff:

    F5  A5  F (higher octave)
E|-----------------|
B|-----------------|
G|-----------------|
D|--3---7----------|
A|--3---7---8-8-8--|
E|--1---5----------|

Chorus:

   Bb5 F5  C5/G G5
E|-----------------|
B|-----------------|
G|--3-------5------|
D|--3---3---5---5--|
A|--1---3---3---5--|
E|------1---3---3--|

           Bb5
But don't come around
F5
Pulling me down
C5/G               G
Tellin the world I let you down
      Bb5             F5                  C5/G
Tell all your friends I wanna dream with you
         Bb5                    F5
So tell all your friends, your neighbours too
C5/G   G                    Bb5             F5
CNN, BBC won't you, so tell all your friends
                    C5
I wanna dream with you

=================================================================================================
Song: NUROFEN
Tab By: Alex Ball (Al_Fish18@hotmail.com)

INTRO:

E|--0--0--0-0--0--0--0-0--|
B|--5--5--4-5--5--5--4-5--|
G|------------------------|
D|------------------------|
A|------------------------|
E|------------------------|

Chord sequence: Cycle 1:

    E5        A5         B5
E|----------------------------------------------------------|
B|----------------------------------------------------------|
G|----------------------------------------------------------|
D|--2--2--2-2--7--7--7-7--9--9-9--10-10-10-10--10-10-10-10--|
A|--2--2--2-2--7--7--7-7--9--9-9----------------------------|
E|--0--0--0-0--5--5--5-5--7--7-7----------------------------|

Cycle 2:

    E5        A5         B5       A5         G5
E|-----------------------------------------------|
B|-----------------------------------------------|
G|-----------------------------------------------|
D|--2--2--2-2--7--7--7-7--9--9-9---7-7-7-7---5---|
A|--2--2--2-2--7--7--7-7--9--9-9---7-7-7-7---5---|
E|--0--0--0-0--5--5--5-5--7--7-7---5-5-5-5---3---|

VERSE: The bends on the 12 fret of the G string have to be only a semi-tone 
so that
they sound the same pitch as the 9th fret of the B string.

E|-----------------------------------------------------------------------------|
B|-----9---9---9-9------9---9---9-9------9---9---9-9------9---9--10-10-10-10---| 
Repeat
G|--12b-12b-12b------12b-12b-12b------12b-12b-12b------12b-12b-----------------|
D|-----------------------------------------------------------------------------|
A|-----------------------------------------------------------------------------|
E|-----------------------------------------------------------------------------|

CHORUS:

E5, A5, B5, A5
E5, A5, B5, A5, G5 (same as intro)

Bridge:

C5, D5, B5

Lead: Trill these notes: Listen to Cd for reference

E|-------------------------------------------------|
B|--------------------15--14--12---10---9--7--9b---|
G|--9---11----13-14--------------------------------|
D|-------------------------------------------------|
A|-------------------------------------------------|
E|-------------------------------------------------|

Final verse: This is the keyboard part transcribed for guitar:

E|--0---2---5---4-----0---2---5---4----|
B|----5---5---5---5-----5---5---5---5--|
G|-------------------------------------|
D|-------------------------------------|
A|-------------------------------------|
E|-------------------------------------|

Outro:

Ends G5, E5.

=================================================================================================
Song: SATELLITE NEWS
Tab by: Alex Ball (Al_Fish18@hotmail.com)
Notes: Capo fret 5
IMPORTANT!: All the fret numbers are relative to the capo, this means that 
when a note
is tabbed at fret 14, this means it is 14 frets higher than the capo and NOT 
just fret 14.
It is actually fret 19.

Verse:

Gtr 1:

    E               A9      A9add7
E|----0---0---0---0---0---0---0---0---|
B|--5---5---4---4---2---2---2---0-----|
G|------------------------------------|
D|------------------------------------|
A|------------------------------------|
E|------------------------------------|

Gtr 2: Strum these chords:

     E              A9      A9add7
E|--------------------------4---------|
B|------------------0-------0---------|
G|---4--------------4-------4---------|
D|---6--------------2-------2---------|
A|---7--------------0-------0---------|
E|------------------------------------|

Link to chorus: Hold A9add7

E|--4--|
B|--0--|
G|--4--|
D|--2--|
A|--0--|
E|-----|

Chorus: Use these chords:

    E   Bsus4 A9  C#m
E|--0---0-----0---0---|
B|--0---0-----0---5---|
G|--1---8-----6---6---|
D|--2---9-----7---6---|
A|--2---9-----7---4---|
E|--0---7-----5-------|


E               Bsus4           A9
I wanna lift myself up to the sky
                                E
Serenade the stars as I pass by
                Bsus4          A9
wanna leave it all just for a while
             C#m   Bsus4
I'll be Satellite news
E             Bsus4            A9
I wanna lift myself above the clouds

Pick the ropes around me you'll see me
C#m Bsus4 A9
S h i n  e       Shine like the sun

Chorus 2:

Last line:

E             Bsus4            A9
I wanna lift myself above the clouds

Pick the ropes around me you'll see me
F#  Ab5  A9                       C#m Bsus4 A9
S h i n  e       Shine like the sun

Middle 8:

Cycles: C#m Bsus4 A9

On one of the cycles there is this addition:

    C#m Bsus4 A9
E|--0---0-----------|
B|--5---0-----------|
G|--6---8-----s14---|
D|--6---9-----s14---|
A|--4---9-----------|
E|------7-----------|

Outro: Cycles Chorus

=================================================================================================
Song: BUG (Aka REVOLUTION)
Tab by: Alex Ball (Al_Fish18@hotmail.com)

MAIN RIFF:

E|--------------------------------------|
B|--------------------------------------|
G|--4s--6--4s--6--4s--6--4s--6--4-4--7--|
D|--4s--6--4s--6--4s--6--4s--6--4-4--7--|
A|--2s--4--2s--4--2s--4--2s--4--2-2--5--|
E|--------------------------------------|

VERSE:


    Db Amaj Emaj
E|--4---0---0---|
B|--6---2---0---|
G|--6---2---1---|
D|--6---2---2---|
A|--4---0---2---|
E|----------0---|

CHORUS:

  Db   Ab A  F#
  REV  O  LU TION

BRIDGE: (You want to fight, gotta fight it no one else will!)

Db, D5

LEAD BEFORE FINAL CHORUS:

E|--------------|
B|--2---4---5---|
G|--4b--6b--7b--|
D|--------------|
A|--------------|
E|--------------|

Outro: Feedback + amusing fairground sounds
=================================================================================================
END- By Alex Ball- June 2000, January-April 2001
E-mail any comments to Al_Fish18@hotmail.com
=================================================================================================

Comments