Feeder - Descend Chords & Tabs

 

Descend Chords & Tabs

Feeder Chords & Tabs

Version: 1 Type: Bass Tab 0 ratings
1 star 2 stars 3 stars 4 stars 5 stars
comments

Descend Bass Tab

   
Descend - Bass Tab
Feeder

Tabbed by Alasdair Thomson
thomsonali@hotmail.com

Intro/Verse
G|-----------------------------|
D|-----------------------------|
A|-----------------------------|
D|-0-6-7-6-7-6-7-6-6-3-6-3-6-3-|


Bridge ("I'm not insane!")
G|-------------------------------|
D|-------------------------------|
A|-------------------------------|  reapeat x2
D|-0--0-0-6--6-6--0--0-0-6--6-6--|

Chorus
G|----------|---------|----------|----------|
D|----------|---------|----------|----------|
A|----------|-3-------|-2--------|-0--------| reapeat x2
D|-0--------|---------|----------|----------|
[ Tab from: http://www.guitartabs.cc/tabs/f/feeder/descend_btab.html ]
After Second Chorus:
G|-----------|----------|
D|-----------|----------|
A|-1----3----|----------| reapeat x2
D|-----------|-0--------|

Interlude:
G|------5-----5------5---4---4---3---3------|
D|------0-----0--0---0---0---0---0---0------|
A|----0----0---------------------------0----|x2
D|--0------0-------0---0---0---0---0-----0--|

Outro:
G|-------------------------------|
D|-------------------------------|
A|-------------------------------|  reapeat x2
D|-0--0-0-6--6-6--0--0-0-6--6-6--|

Order of playing:
Intro/verse
Bridge
Chorus
Verse2
Bridge
Chorus2
After 2nd chorus
Interlude
Final mini-verse
Final Chorus
Outro
Comments