Feeder - Come Back Around Chords & Tabs

 

Come Back Around Chords & Tabs

Feeder Chords & Tabs

Version: 3 Type: Tab 0 ratings
1 star 2 stars 3 stars 4 stars 5 stars
comments

Come Back Around Tab

   
 
  
  
  
Feeder - Come Back Around
Tabbed by Jonothan Campbell

The tuning for this song is drop D (DADGBE)

INTRO/VERSE (MILD DISTORTION)

Strum Lightly (LISTEN 2 THE SONG AND WORK OUT THE RHYTHM!!)

E|--------------------------
B|--------------------------
G|--------------------------
D|-14---7---10--5-----------
A|-12---5---8---3-----------
D|-12---5---8---3----------- Repeat a few times

SECOND BAR (PLAY WITH DISTORTION ON LAST 2 CHORDS)

E|--------------------------
B|--------------------------
G|--------------------------
D|-14---7---8-8-8-8\3-3-3-3-
A|-12---5---8-8-8-8\3-3-3-3-
D|-12---5---8-8-8-8\3-3-3-3- 



INTERLUDE A (HEAVY DISTORTION)

E|------------------------------------------
B|------------------------------------------
G|------------------------------------------
D|-10-10b-10-10b-10-10b-10-10b--------10----
A|(10)-------------------------9-9-10-------
D|(10)-------------------------------------- (X2)


CHORUS (DISTORTION)
(THE SPACES BETWEEN FIRST CHORDS ARE JUST FOR EASY READING)

E|---------------------------------------------------
B|---------------------------------------------------
G|-7-7-7---------------------------------------------
D|-7-7-7-555555555-10101010-121212-555-10-10-3-3-8-8-
A|-5-5-5-555555555-10101010-121212-555-10-10-3-3-8-8-
D|-------555555555-10101010-121212-555-10-10-3-3-8-8-
[ Tab from: http://www.guitartabs.cc/tabs/f/feeder/come_back_around_tab_ver_3.html ]
END OF SECOND BAR
("I know that it may take a while...")
E|--------------------------
B|--------------------------
G|--------------------------
D|-8888888855555555---------
A|-8888888855555555---------
D|-8888888855555555---------

THEN:

E|-----
B|-7br-
G|-----

VERSE

INTERLUDE A

CHORUS

GRUNGY RIFF AT THE END OF THE CHORUS
(DISTORTION)

E|-------------------------------
B|-------------------------------
G|-------------------------------
D|-000333444/555/10101012-12-----
A|-000333444/555/10101012-12-----
D|-000333444/555/10101012-12-----(X3) 
 (THOSE AT THE END ARE 10'S + 12'S).

RIFF 1

E|-----------------------
B|-----------------------
G|-----------------------
D|-88888888\55/11-11-11--
A|-88888888\55/11-11-11--
D|-88888888\55/11-11-11--(X2)
(CHORDS AT THE END ARE ELEVENS)

VERSE play about 3 times.

This bar of the verse is slightly changed
and is somewhere in there:

E|------------------------------------
B|------------------------------------
G|-77777777---------------------------
D|-77777777-55555555/8-8-8-8\3-3-3-3--
A|-55555555-55555555/8-8-8-8\3-3-3-3--
D|----------55555555/8-8-8-8\3-3-3-3--

INERLUDE A (x1)

CHORUS (X2, WITH END OF SECOND BAR)

OUTRO

E|--------------------------------------
B|--------------------------------------
G|--------------------------------------
D|-8-8-8-8\5-5-5-5/8-8-8-8\5-5-5-5/11---
A|-8-8-8-8\5-5-5-5/8-8-8-8\5-5-5-5/11---
D|-8-8-8-8\5-5-5-5/8-8-8-8\5-5-5-5/11---

END 

E|----
B|----
G|-7-- OR  D|-12-- 
D|-7--     A|-12-- 
A|-5--     D|-12--
D|---- 

Comments