Feeder - Buck Rogers Chords & Tabs

 

Buck Rogers Chords & Tabs

Feeder Chords & Tabs

Version: 7 Type: Tab 0 ratings
1 star 2 stars 3 stars 4 stars 5 stars
comments

Buck Rogers Tab

Intro and Verse: Clean
e-----------------------------------------------------------
B-----------------------------------------------------------
G-9-9-9-9-9-9-9-9-------------------------------------------
D-7-7-7-7-7-7-7-7-6-6-6-6-7-7-7-7----------------------x6---
A-7-7-7-7-7-7-7-7-6-6-6-6-7-7-7-7---------------------------
E-----------------4-4-4-4-5-5-5-5---------------------------

Verse(2): Distortion on

 -----------------------------------------------------------
 -----------------------------------------------------------
 -9-9-9-9-9-9-9-9-------------------------------------------
 -7-7-7-7-7-7-7-7-6-6-6-6-7-7-7-7------------------x2-------
 -7-7-7-7-7-7-7-7-6-6-6-6-7-7-7-7---------------------------
 -0-0-0-0-0-0-0-0-4-4-4-4-5-5-5-5---------------------------

Pre-chorus

 -----------------------------------------------------------
 -----------------------------------------------------------
 ------------------------------2-2-2-2-2-2-2-2--------------
 -9-9-9-9-9-9-9-9-7~----------------------------------------
 -9-9-9-9-9-9-9-9-7~----------------------------------------
 -7-7-7-7-7-7-7-7-5~----------------------------------------

Chorus

 -----------------------------------------------------------
 -----------------------------------------------------------
 -9-9-9-9-9-9-9-9-------------------------------------------
 -9-9-9-9-9-9-9-9-9-9-9-9-9-9-9-9-11-11-11-11-11-11-11-11---
 -7-7-7-7-7-7-7-7-9-9-9-9-9-9-9-9-11-11-11-11-11-11-11-11---
 -----------------7-7-7-7-7-7-7-7--9--9--9--9--9--9--9--9---
[ Tab from: http://www.guitartabs.cc/tabs/f/feeder/buck_rogers_tab_ver_7.html ]
 -----------------------------------------------------------
 -----------------------------------------------------------
 -----------------9-9-9-9-9-9-9-9---------------------------
 -7-7-7-7-7-7-7-7-9-9-9-9-9-9-9-9-9-9-9-9-9-9-9-9-9-9-9-9-9-
 -7-7-7-7-7-7-7-7-7-7-7-7-7-7-7-7-9-9-9-9-9-9-9-9-9-9-9-9-9-
 -5-5-5-5-5-5-5-5-----------------7-7-7-7-7-7-7-7-7-7-7-7-7-

 -----------------------------------------------------------
 -----------------------------------------------------------
 -----------------------------------------------------------
 9-9-9------------------------------------------------------
 9-9-9------------------------------------------------------
 7-7-7------------------------------------------------------

Verse(2)x2
Intro and verse x4
Verse(2)x2
Pre-chorus
chorus x2

Bridge

 -----------------------------------------------------------
 -----------------------------------------------------------
 -----------------------------------------------------------
 -4-4-4-4-4-6-7-7-7-7-9-9-9-9-4-4-4-4-4-6-7-7-7-7-7-7-7-7---
 -4-4-4-4-4-6-7-7-7-7-9-9-9-9-4-4-4-4-4-6-7-7-7-7-7-7-7-7---
 -2-2-2-2-2-4-5-5-5-5-7-7-7-7-2-2-2-2-2-4-5-5-5-5-5-5-5-5---

Solo

 -----------------------------------------------------------
 -9-9-9-7-7-7-7-7-4-4-4-2-2-2-2-2---------------------------
 -------------------------------------------------------x2--
 -----------------------------------------------------------
 -----------------------------------------------------------
 -0-0-0-0-0-0-0-0-0-0-0-0-0-0-0-0---------------------------
 (Play bass string with thumb and 2nd string with middle  
  finger)

Verse(2)x2
Chorus x2 
Verse(2) but end on the fitst -7-
                              -7-
                              -5-

That should be it!!
This is my first tab so I hope it's right!
Any corrections e-mail me @ andrewsteele182@hotmail.com
Comments