Feeder - Buck Rogers Chords & Tabs

 

Buck Rogers Chords & Tabs

Feeder Chords & Tabs

Version: 13 Type: Tab 0 ratings
1 star 2 stars 3 stars 4 stars 5 stars
comments

Buck Rogers Tab

   
Author/Artist: Feeder
Title: Buck Rogers
Album: Echo Park
Transcribed by: Dylan Benton
Email: Dylanbenton@gmail.com

EADBGe
2 Guitars Transcribed, easy to play on 1 though

Note: The E chord In The Chorus Can Be Replaced With And Open E,
This Is Just The Way Grant Plays It In The Film Clip
E5 (open) 022xxx
E5        x799xx


Intro [Guitar 1] (Clean Guitar)
-------------------------------------------------------------------|
-------------------------------------------------------------------|
-------------------------------------------------------------------|
---6---6---7---x2--------------------------------------------------|
---7---6---7-------------------------------------------------------|
---0---4---5-------------------------------------------------------|

Verse [Guitar 1] (Clean Guitar)
-------------------------------------------------------------------|
-------------------------------------------------------------------|
-------------------------------------------------------------------|
---6---6---7---x4--------------------------------------------------|
---7---6---7-------------------------------------------------------|
---0---4---5-------------------------------------------------------|

[Guitar 2] (Distorted Guitar)
-------------------------------------------------------------------|
--12---12---12---12---12---11---11---10---10-----------------------|
-----9----9----9----9----9----9----9----9------x4------------------|
-------------------------------------------------------------------|
-------------------------------------------------------------------|
-------------------------------------------------------------------|

Pre-Chorus  [Guitar 1] (Distorted Guitar)
----------------|--------------------------------------------------|
----------------|--------------------------------------------------|
----------------|--------------------------------------------------|
---2---6---7--x2|---9---7-Let Ring---------------------------------|
---2---6---7----|---9---7------------------------------------------|
---0---4---5----|---7---5------------------------------------------|
[ Tab from: http://www.guitartabs.cc/tabs/f/feeder/buck_rogers_tab_ver_13.html ]
[Guitar 2] (Distorted Guitar)
----------------|--------------------------------------------------|
----------------|--------------------------------------------------|
----------------|------2----2b-2b-2b-2b-2b-2b-2b-2b----------------|
---2---6---7--x2|--9---2-------------------------------------------|
---2---6---7----|--9---0-------------------------------------------|
---0---4---5----|--7-----------------------------------------------|

Chorus (Both Guitars, Distorted)
--------------------|----------------------------------------------|
--------------------|-------------------First Time x1 Whole Lot----|
---9----------------|---9-------2-------Second Time x2 Whole Lot---|
---9---9---11---7---|---9---9---2-------Outro Chorus x2 Whole Lot--|
---7---9---11---7---|---7---9---0----------------------------------|
-------7---9----5---|-------7--------------------------------------|

Post-Chorus  [Guitar 1] (Distorted Guitar)
----------------|--------------------------------------------------|
----------------|--------------------------------------------------|
----------------|--------------------------------------------------|
---2---6---7--x2|--------------------------------------------------|
---2---6---7----|--------------------------------------------------|
---0---4---5----|--------------------------------------------------|

[Guitar 2] (Distorted Guitar) Play on the "Buck Rogers!" bit
-------------------------------------------------------------------|
---4--4--4--4--5--5--5--5------------------------------------------|
---6b-6b-6b-6b-7b-7b-7b-7b---x2------------------------------------|
-------------------------------------------------------------------|
-------------------------------------------------------------------|
-------------------------------------------------------------------|

Bridge [Guitar 1] (Distorted Guitar)
--------------------|-----------------------------------|----------|
--------------------|---9-9-9-7-7-7-7-4-4-4-2-2-2-2--x4-|----------|
---------------5----|-----------------------------------|----------|
---4---6---7---5-x2-|-----------------------------------|---2------|
---4---6---7---3----|-----------------------------------|---2------|
---2---4---5--------|-----------------------------------|---0------|
               ^
               Only Play This Chord On The First Time

Outro : Both Guitar 1 and 2 Play The Post Chorus Once
Comments