Feeder - Buck Rogers Chords & Tabs

 

Buck Rogers Chords & Tabs

Feeder Chords & Tabs

Version: 12 Type: Tab 0 ratings
1 star 2 stars 3 stars 4 stars 5 stars
comments

Buck Rogers Tab

Feeder Buck Rogers
From the album Echo Park
Track ?
Tabbed by Liam
Email: guitar_rocker_47@hotmail.com
Tuning: Standard

Note: this is what I call an ultimate tab - guitar 1, guitar 2, bass and lyrics so your
band can play it, apart from drums sorry but I don't play drums so I wouldn't know it.
I am confident that your band can play this tab and it sounds good, it sounds like the
real McCoy, if you disagree; let your views be known (leave a comment)


--------
Guitar 1
--------

Intro
e|------------------------------------------|------------------------------------------|
B|------------------------------------------|------------------------------------------|
G|------------------------------------------|------------------------------------------|
D|----------------------------6-6-6-7-7-7-7-|---------------------------6-6-6-7-7-7-7--|
A|-11-11-11-11-11-11-11-11-11-6-6-6-7-7-7-7-|11-11-11-11-11-11-11-11-11-6-6-6-7-7-7-7--|
E|--0--0--0--0--0--0--0--0--0-4-4-4-5-5-5-5-|-0--0--0--0--0--0--0--0--0-4-4-4-5-5-5-5--|

Verse
e|------------------------------------------|------------------------------------------|
B|------------------------------------------|------------------------------------------|
G|------------------------------------------|------------------------------------------|
D|----------------------------6-6-6-7-7-7-7-|---------------------------6-6-6-7-7-7-7--|
A|-11-11-11-11-11-11-11-11-11-6-6-6-7-7-7-7-|11-11-11-11-11-11-11-11-11-6-6-6-7-7-7-7--|
E|--0--0--0--0--0--0--0--0--0-4-4-4-5-5-5-5-|-0--0--0--0--0--0--0--0--0-4-4-4-5-5-5-5--|

Pre Chorus
e|----------------------------------|--------------------------------------------------|
B|----------------------------------|--------------------------------------------------|
G|----------------------------------|--------------------------------------------------|
D|-2-2-2-2-2-2-2-2-2--6-6-6-7-7-7-7-|-2-2-2-2-2-2-2-2-2--6-6-6-7-7-7-7-99-9-9-9-9-9--7~|
A|-2-2-2-2-2-2-2-2-2--6-6-6-7-7-7-7-|-2-2-2-2-2-2-2-2-2--6-6-6-7-7-7-7-99-9-9-9-9-9--7~|
E|-0-0-0-0-0-0-0-0-0--4-4-4-5-5-5-5-|-0-0-0-0-0-0-0-0-0--4-4-4-5-5-5-5-77-7-7-7-7-7--5~|

e|-------------------------------------------------------------------------------------|
B|-------------------------------------------------------------------------------------|
G|-2-2-2-2-2-2-2-----------------------------------------------------------------------|
D|-------------------------------------------------------------------------------------|
A|-------------------------------------------------------------------------------------|
E|-------------------------------------------------------------------------------------|

Chorus
e|-------------------------------------------------------------------------------------|
B|-------------------------------------------------------------------------------------|
G|-------------------------------------------------------------------------------------|
D|-2-2-2-2-2-2-2-2--9-9-9-9-9-9-9-9--11-11-11-11-11-11-11-11--7-7-7-7-7-7-7-7----------|
A|-2-2-2-2-2-2-2-2--9-9-9-9-9-9-9-9--11-11-11-11-11-11-11-11--7-7-7-7-7-7-7-7----------|
E|-0-0-0-0-0-0-0-0--7-7-7-7-7-7-7-7---9--9--9--9--9--9--9--9--5-5-5-5-5-5-5-5----------|

e|-------------------------------------------------------------------------------------|
B|-------------------------------------------------------------------------------------|
G|-------------------------------------------------------------------------------------|
D|-2-2-2-2-2-2-2-2--9-9-9-9-9-9-9-9--7-7-7-7-7-7-7-7-7-7-7-7-7-7-7-7-------------------|
A|-2-2-2-2-2-2-2-2--9-9-9-9-9-9-9-9--7-7-7-7-7-7-7-7-7-7-7-7-7-7-7-7-------------------|
E|-0-0-0-0-0-0-0-0--7-7-7-7-7-7-7-7--5-5-5-5-5-5-5-5-5-5-5-5-5-5-5-5-------------------|

Post Chorus
e|--------------------4-4--6-6-6--|--------------------4-4--6-6-6----------------------|
B|--------------------4-4--6-6-6--|--------------------4-4--6-6-6----------------------|
G|--------------------------------|----------------------------------------------------|
D|-2-2-2-2-2-2-2-2-2--------------|-2-2-2-2-2-2-2-2-2----------------------------------|
A|-2-2-2-2-2-2-2-2-2--------------|-2-2-2-2-2-2-2-2-2----------------------------------|
E|-0-0-0-0-0-0-0-0-0--------------|-0-0-0-0-0-0-0-0-0----------------------------------|

Bridge
e|----------------------------|--------------------------------------------------------|
B|----------------------------|--------------------------------------------------------|
G|----------------------------|--------------------------------------------------------|
D|-2-2-2-2-2--6--7-7-7--7-7-7-|-2-2-2-2-2--6--7-7-7--7-7-7-----------------------------|
A|-2-2-2-2-2--6--7-7-7--7-7-7-|-2-2-2-2-2--6--7-7-7--7-7-7-----------------------------|
E|-0-0-0-0-0--4--5-5-5--5-5-5-|-0-0-0-0-0--4--5-5-5--5-5-5-----------------------------|

Bridge part 2
e|-------------------------------------------------------------------------------------|
B|-------------------------------------------------------------------------------------|
G|--13--13--13---11--11--11--11--11---8-8-8--6-6-6-6-6---------------------------------|
D|---x---x---x----x---x---x---x---x---x-x-x--x-x-x-x-x---------------------------------|
A|--11--11--11----9---9---9---9---9---6-6-6--4-4-4-4-4---------------------------------|
E|-------------------------------------------------------------------------------------|

Interlude (played on the Cd at 2.25)
e|-------------------|---------------------------------|--------------------------------|
B|-------------------|---------------------------------|--------------------------------|
G|-------------------|---------------------------------|--------------------------------|
D|-2-2-2-2-2-2-2-2-2-|-2-2-2-2-2-2-2-2-2-6-6-6-7-7-7-7-|2-2-2-2-2-2-2-2-2-6-6-6-7-7-7-7-|
A|-2-2-2-2-2-2-2-2-2-|-2-2-2-2-2-2-2-2-2-6-6-6-7-7-7-7-|2-2-2-2-2-2-2-2-2-6-6-6-7-7-7-7-|
E|-0-0-0-0-0-0-0-0-0-|-0-0-0-0-0-0-0-0-0-4-4-4-5-5-5-5-|0-0-0-0-0-0-0-0-0-4-4-4-5-5-5-5-|

Outro
e|--------------------4-4--6-6-6-------------------------------------------------------|
B|--------------------4-4--6-6-6-------------------------------------------------------|
G|-------------------------------------------------------------------------------------|
D|-2-2-2-2-2-2-2-2-2-------------------------------------------------------------------|
A|-2-2-2-2-2-2-2-2-2-------------------------------------------------------------------|
E|-0-0-0-0-0-0-0-0-0-------------------------------------------------------------------|


Order

Intro
Verse x2
Pre chorus 
Chorus
Post Chorus
Verse x2
Pre Chorus
Chorus x2
Bridge
Bridge part 2 x4
Interlude
Chorus x2
Outro

--------
Guitar 2
--------

Feeder Buck Rogers
From the album Echo Park
Track ?
Tabbed by Liam
Email: guitar_rocker_47@hotmail.com
Tuning: Standard

Note: this is what I call an ultimate tab - guitar 1, guitar 2, bass and lyrics so your
band can play it, apart from drums sorry but I don't play drums so I wouldn't know it.
I am confident that your band can play this tab and it sounds good, it sounds like the
real McCoy, if you disagree; let your views be known (leave a comment)


Intro (played by Guitar 1)

Verse
e|----0----0----0----0----0----0----0----0--|----0----0----0----0----0----0----0----0--|
B|-12---12---12---12---11---11---10---10----|-12---12---12---12---11---11---10---10----|
G|------------------------------------------|------------------------------------------|
D|------------------------------------------|------------------------------------------|
A|------------------------------------------|------------------------------------------|
E|------------------------------------------|------------------------------------------|

Pre Chorus
e|----------------------------------|--------------------------------------------------|
B|----------------------------------|--------------------------------------------------|
G|----------------------------------|--------------------------------------------------|
D|-2-2-2-2-2-2-2-2-2--6-6-6-7-7-7-7-|-2-2-2-2-2-2-2-2-2--6-6-6-7-7-7-7-99-9-9-9-9-9--7~|
A|-2-2-2-2-2-2-2-2-2--6-6-6-7-7-7-7-|-2-2-2-2-2-2-2-2-2--6-6-6-7-7-7-7-99-9-9-9-9-9--7~|
E|-0-0-0-0-0-0-0-0-0--4-4-4-5-5-5-5-|-0-0-0-0-0-0-0-0-0--4-4-4-5-5-5-5-77-7-7-7-7-7--5~|
[ Tab from: http://www.guitartabs.cc/tabs/f/feeder/buck_rogers_tab_ver_12.html ]
Chorus
e|-------------------------------------------------------------------------------------|
B|-------------------------------------------------------------------------------------|
G|-------------------------------------------------------------------------------------|
D|-2-2-2-2-2-2-2-2--9-9-9-9-9-9-9-9--11-11-11-11-11-11-11-11--7-7-7-7-7-7-7-7----------|
A|-2-2-2-2-2-2-2-2--9-9-9-9-9-9-9-9--11-11-11-11-11-11-11-11--7-7-7-7-7-7-7-7----------|
E|-0-0-0-0-0-0-0-0--7-7-7-7-7-7-7-7---9--9--9--9--9--9--9--9--5-5-5-5-5-5-5-5----------|

e|-------------------------------------------------------------------------------------|
B|-------------------------------------------------------------------------------------|
G|-------------------------------------------------------------------------------------|
D|-2-2-2-2-2-2-2-2--9-9-9-9-9-9-9-9--7-7-7-7-7-7-7-7-7-7-7-7-7-7-7-7-------------------|
A|-2-2-2-2-2-2-2-2--9-9-9-9-9-9-9-9--7-7-7-7-7-7-7-7-7-7-7-7-7-7-7-7-------------------|
E|-0-0-0-0-0-0-0-0--7-7-7-7-7-7-7-7--5-5-5-5-5-5-5-5-5-5-5-5-5-5-5-5-------------------|

Post Chorus
e|--------------------------------|----------------------------------------------------|
B|--------------------------------|----------------------------------------------------|
G|--------------------------------|----------------------------------------------------|
D|-2-2-2-2-2-2-2-2-2--------------|-2-2-2-2-2-2-2-2-2----------------------------------|
A|-2-2-2-2-2-2-2-2-2--------------|-2-2-2-2-2-2-2-2-2----------------------------------|
E|-0-0-0-0-0-0-0-0-0--------------|-0-0-0-0-0-0-0-0-0----------------------------------|

Bridge
e|----------------------------|--------------------------------------------------------|
B|----------------------------|--------------------------------------------------------|
G|----------------------------|--------------------------------------------------------|
D|-2-2-2-2-2--6--7-7-7--7-7-7-|-2-2-2-2-2--6--7-7-7--7-7-7-----------------------------|
A|-2-2-2-2-2--6--7-7-7--7-7-7-|-2-2-2-2-2--6--7-7-7--7-7-7-----------------------------|
E|-0-0-0-0-0--4--5-5-5--5-5-5-|-0-0-0-0-0--4--5-5-5--5-5-5-----------------------------|

Bridge part 2 (played by Guitar 1)

Interlude (played on the Cd at 2.25)
e|-------------------|---------------------------------|--------------------------------|
B|-------------------|---------------------------------|--------------------------------|
G|-------------------|---------------------------------|--------------------------------|
D|-2-2-2-2-2-2-2-2-2-|-2-2-2-2-2-2-2-2-2-6-6-6-7-7-7-7-|2-2-2-2-2-2-2-2-2-6-6-6-7-7-7-7-|
A|-2-2-2-2-2-2-2-2-2-|-2-2-2-2-2-2-2-2-2-6-6-6-7-7-7-7-|2-2-2-2-2-2-2-2-2-6-6-6-7-7-7-7-|
E|-0-0-0-0-0-0-0-0-0-|-0-0-0-0-0-0-0-0-0-4-4-4-5-5-5-5-|0-0-0-0-0-0-0-0-0-4-4-4-5-5-5-5-|

Outro
e|-------------------------------------------------------------------------------------|
B|-------------------------------------------------------------------------------------|
G|-------------------------------------------------------------------------------------|
D|-2-2-2-2-2-2-2-2-2-------------------------------------------------------------------|
A|-2-2-2-2-2-2-2-2-2-------------------------------------------------------------------|
E|-0-0-0-0-0-0-0-0-0-------------------------------------------------------------------|


Order

Intro (played by Guitar 1)
Verse x2
Pre chorus 
Chorus
Post Chorus
Verse x2
Pre Chorus
Chorus x2
Bridge
Bridge part 2 (played by Guitar 1)
Interlude
Chorus x2
Outro

----
Bass
----

Intro
G|------------------------------------------|------------------------------------------|
D|------------------------------------------|------------------------------------------|
A|------------------------------------------|------------------------------------------|
E|--0--0--0--0--0--0--0--0--0-4-4-4-5-5-5-5-|-0--0--0--0--0--0--0--0--0-4-4-4-5-5-5-5--|

Verse
G|------------------------------------------|------------------------------------------|
D|------------------------------------------|------------------------------------------|
A|------------------------------------------|------------------------------------------|
E|--0--0--0--0--0--0--0--0--0-4-4-4-5-5-5-5-|-0--0--0--0--0--0--0--0--0-4-4-4-5-5-5-5--|

Pre Chorus
G|----------------------------------|--------------------------------------------------|
D|----------------------------------|--------------------------------------------------|
A|----------------------------------|--------------------------------------------------|
E|-0-0-0-0-0-0-0-0-0--4-4-4-5-5-5-5-|-0-0-0-0-0-0-0-0-0--4-4-4-5-5-5-5-77-7-7-7-7-7--5~|

Chorus
G|-------------------------------------------------------------------------------------|
D|-------------------------------------------------------------------------------------|
A|-------------------------------------------------------------------------------------|
E|-0-0-0-0-0-0-0-0--7-7-7-7-7-7-7-7---9--9--9--9--9--9--9--9--5-5-5-5-5-5-5-5----------|

G|-------------------------------------------------------------------------------------|
D|-------------------------------------------------------------------------------------|
A|-------------------------------------------------------------------------------------|
E|-0-0-0-0-0-0-0-0--7-7-7-7-7-7-7-7--5-5-5-5-5-5-5-5-5-5-5-5-5-5-5-5-------------------|

Post Chorus
G|--------------------------------|----------------------------------------------------|
D|--------------------------------|----------------------------------------------------|
A|--------------------------------|----------------------------------------------------|
E|-0-0-0-0-0-0-0-0-0--------------|-0-0-0-0-0-0-0-0-0----------------------------------|

Bridge
G|----------------------------|--------------------------------------------------------|
D|----------------------------|--------------------------------------------------------|
A|----------------------------|--------------------------------------------------------|
E|-0-0-0-0-0--4--5-5-5--5-5-5-|-0-0-0-0-0--4--5-5-5--5-5-5-----------------------------|

Interlude (played on the Cd at 2.25)
G|-------------------|---------------------------------|--------------------------------|
D|-------------------|---------------------------------|--------------------------------|
A|-------------------|---------------------------------|--------------------------------|
E|-0-0-0-0-0-0-0-0-0-|-0-0-0-0-0-0-0-0-0-4-4-4-5-5-5-5-|0-0-0-0-0-0-0-0-0-4-4-4-5-5-5-5-|

Outro
G|-------------------------------------------------------------------------------------|
D|-------------------------------------------------------------------------------------|
A|-------------------------------------------------------------------------------------|
E|-0-0-0-0-0-0-0-0-0-------------------------------------------------------------------|


Order

Intro
Verse x2
Pre chorus 
Chorus
Post Chorus
Verse x2
Pre Chorus
Chorus x2
Bridge
Interlude
Chorus x2
Outro

------
Lyrics
------

Intro (no lyrics)

(Verse)
He's got a brand new car
Looks like a jaguar
Its got leather Seats
It's got a CD player

(Pre Chorus)
Player, player, player, player
Player, player, player, player
Player, player, player, player
Player, player, player, player
Player, player, player, player
Player, player, player, player

But I don't wanna talk about it any more
I think were...

(Chorus)
Gonna make it
I think were gonna save it yeah
So don't you try and fake it
Any more, any more

(Post chorus) No lyrics

(Verse 2)
We start over again
Grow ourselves new skin
Get a house in Devon
Drink Cider from 11

(Post Chorus)
11, 11, 11, 11, 11, 11, 11, 11
11, 11, 11, 11, 11, 11, 11, 11
11, 11, 11, 11, 11, 11, 11, 11

But I don't wanna talk about it any more
I think were...

(Chorus 2)
Gonna make it
I think were gonna save it yeah
So don't you try and fake it
Any more, any more

I think were Gonna make it
I think were gonna save it yeah
So don't you try and fake it
Any more, any more

(Bridge)
He's got a brand new car
He's got a brand new car

(Bridge part 2)
A brand new car
A brand new car
A brand new car

(Interlude)
I think were...

(Chorus 3)
Gonna make it
I think were gonna save it yeah
So don't you try and fake it
Any more, any more

I think were Gonna make it
I think were gonna save it yeah
So don't you try and fake it
Any more, any more

(Outro) no lyrics

please rate this and comment on it, thanks
Comments