Feeder - Buck Rogers Chords & Tabs

 

Buck Rogers Chords & Tabs

Feeder Chords & Tabs

Version: 1 Type: Tab 3 ratings
1 star 2 stars 3 stars 4 stars 5 stars
comments

Buck Rogers Tab

   
Song: Buck Rogers
Band: Feeder

I think this is right I did it all over X-mas so if you know
bits are wrong then e-mail me at BoneIdol76@aol.com

Intro

this is all to four i think?

/E / G#5 A5 / E / G#5 A5//
 
VERIE 1

/:E / G#5 A5 / E / G#5 A5 / E / G#5 A5 :/ 
B5 / A5 / N.C//

CHORUS

/E5 / B5 / C#5 / A5 / E5 / B5 / A5 / REPEAT LAST A5//

BRIDGE 1

/E / G#5 A5 / E / G#5 A5// 

VERSE 2

/: E / G#5 A5 / E / G#5 A5 / E / G#5 A5 :/
/B5 / A5 / N.C //

CHORUS

/ E5 / B5 / C#5 / A5 / E5 / B5 / A5 / % /
/ E5 / B5 / C#5 / A5 / E5 / B5 / A5 / % //

BRIGE 2 

/ F#5,, G#5 / A5, C5,/ F#5,, G#5 / A5,,,//
/ E / % / E / % / E / % / E / % //

BRIGE 3
/ E / G#5 A5 / E / G#5 A5 //

CHORUS

/ E5 / B5 / C#5 / A5 / E5 / B5 / A5 / % /
/ E5 / B5 / C#5 / A5 / E5 / B5 / A5 / % //

/ E / G#5 A5 // 


LISTEN TO THE SONG TO GET ALL THE
TIMING HERE ARE SOME OF THE MAIN BITS TABED 


INTRO + VERSE LEAD

---------------------------------------------------
--12---12---12---12---11---11---11---10---10---10--
-----9----9----9----9----9----9----9----9----9----9
---------------------------------------------------
---------------------------------------------------
---------------------------------------------------


BRIGE 1 LEAD
[ Tab from: http://www.guitartabs.cc/tabs/f/feeder/buck_rogers_tab.html ]
---------------------------------------------------
---(3)---4----------(4)---5------------------------
---------------------------------------------------
---------------------------------------------------
---------------------------------------------------
---------------------------------------------------

BRIGE 3

----4----4---4----2----2----2----2----2-----------------------------
-----------------------------------------4--4--4--2--2--2--2--------
--------------------------------------------------------------------
--------------------------------------------------------------------
--------------------------------------------------------------------
--------------------------------------------------------------------

----4----4----4----2----2----2---2----2-----------0--0--0--0--0-----
-----------------------------------------4--4--4--------------------
--------------------------------------------------------------------
--------------------------------------------------------------------
--------------------------------------------------------------------
--------------------------------------------------------------------

----4----4---4----2----2----2----2----2-----------------------------
-----------------------------------------4--4--4--2--2--2--2--------
--------------------------------------------------------------------
--------------------------------------------------------------------
--------------------------------------------------------------------


----4----4---4----2----2----2----2----2-----------------------------
-----------------------------------------4--4--4--4--4--4--4--4--4--
--------------------------------------------------------------------
--------------------------------------------------------------------
--------------------------------------------------------------------
--------------------------------------------------------------------

WELL THATS IT HOPE YOU HAVE FUN

TOM KNIGHT
Comments