Fear Factory - What Will Become Chords & Tabs

 

What Will Become Chords & Tabs

Fear Factory Chords & Tabs

Version: 2 Type: Tab 0 ratings
1 star 2 stars 3 stars 4 stars 5 stars
comments

What Will Become Tab

   
Song: What Will Become
Artist: Fear Factory

There are actually 2 guitars in this song: Dino and Raymond.
Raymond does come in till the "soft" part of the song.

Tuning(Both Guiars): A-D-G-C-F-A-D
(clean with a "filter" effect)(intro/chorus)
D-------------------------------------------------------------------------
A-------------------------------------------------------------------------
F-------------------------------------------------------------------------
C-------------------------------------------------------------------------
G-------------------------------------------------------------------------
D-------------------------------------------------------------------------
A-2-2--3p2--2-2--3--2-2--3p2--2-2--3--2-2--3p2--2-2--3--2-2--3p2--2-2--3--

D-------------------------------------------------------------------------
A-------------------------------------------------------------------------
F-------------------------------------------------------------------------
C-------------------------------------------------------------------------
G-------------------------------------------------------------------------
D-------------------------------------------------------------------------
A-2-2--3p2--2-2--3--2-2--3p2--2-2--3--2-2--3p2--2-2--3--2-2(bluntly)------

(heavy distortion)
D-------------------------------------------------------------------------------
A-------------------------------------------------------------------------------
F---------------------------------------------------------------------6(1/4 bend)
C---------------------------------------------------------------------6(1/4 bend)
G--------------------------------------------------------------------------------
D--------------------------------------------------------------------------------
A-2-2--3p2--2-2--3--2-2--3p2--2-2--3--2-2--3p2--2-2--3--2-2--3p2--2-2------------


D-------------------------------------------------------------------------------
A-------------------------------------------------------------------------------
F---------------------------------------------------------------------6(1/4 bend)(hold)
C---------------------------------------------------------------------6(1/4 bend)(hold)
G--------------------------------------------------------------------------------
D--------------------------------------------------------------------------------
A-2-2--3p2--2-2--3--2-2--3p2--2-2--3--2-2--3p2--2-2--3--2-2--3p2--2-2------------

(verse)
D-----------------:----------------:-----------------:----------------
A-----------------:----------------:-----------------:----------------
F-----------------:----------------:-----------------:----------------
C-----------------:-(then..)-0h7h9-:-----------------:-(then..)-9-8-7-
G-(repete 3x)-----:----------0h7h9-:-----------------:----------9-8-7-
D-9-9--9--9-9-9-9-:-9-9--9---------:-9-9--9--9-9-9-9-:-9-9--9---------
A-7-7--7--7-7-7-7-:-7-7--7---------:-7-7--7--7-7-7-7-:-7-7--7---------
  . .  .  . . . .   . .  .           . .  .  . . . .   . .  .

D-----------------:----------------:-----------------:
A-----------------:----------------:-----------------:
F-----------------:----------------:-----------------:
C-----------------:-(then..)-0h7h9-:-----------------:
G-(repete 3x)-----:----------0h7h9-:-----------------:
D-9-9--9--9-9-9-9-:-9-9--9---------:-9-9--9--9-9-9-9-:
A-7-7--7--7-7-7-7-:-7-7--7---------:-7-7--7--7-7-7-7-:
  . .  .  . . . .   . .  .           . .  .  . . . . 

(per-chorus)
D----------------------------------------------
A----------------------------------------------
F---2-----2-----2-----6-----2-----2-----2------
C-2---2-3---3-4---4-5---5-2---2-3---3-4---4-5~-
G-2---2-3---3-4---4-5---5-2---2-3---3-4---4-5~-
D-0---0-1---1-2---2-3---3-0---0-1---1-2---2-3~-
A----------------------------------------------

(chorus)
D-------------------------------------------------------------------------------
A-------------------------------------------------------------------------------
F---------------------------------------------------------------------6(1/4 bend)
C---------------------------------------------------------------------6(1/4 bend)
G--------------------------------------------------------------------------------
D--------------------------------------------------------------------------------
A-2-2--3p2--2-2--3--2-2--3p2--2-2--3--2-2--3p2--2-2--3--2-2--3p2--2-2------------

D--------------------------------------------------------------------------------
A--------------------------------------------------------------------------------
F--------------------------------------------------------------------------------
C--------------------------------------------------------------------------------
G--------------------------------------------------------------------------------
D--------------------------------------------------------------------------------
A-2-2--3p2--2-2--3--2-2--3p2--2-2--3--2-2--3p2--2-2--3--2-2--3p2--2-2------------


(effects break)



(verse)
D-----------------:----------------:-----------------:----------------
A-----------------:----------------:-----------------:----------------
F-----------------:----------------:-----------------:----------------
C-----------------:-(then..)-0h7h9-:-----------------:-(then..)-9-8-7-
G-(repete 3x)-----:----------0h7h9-:-----------------:----------9-8-7-
D-9-9--9--9-9-9-9-:-9-9--9---------:-9-9--9--9-9-9-9-:-9-9--9---------
A-7-7--7--7-7-7-7-:-7-7--7---------:-7-7--7--7-7-7-7-:-7-7--7---------
  . .  .  . . . .   . .  .           . .  .  . . . .   . .  .
[ Tab from: http://www.guitartabs.cc/tabs/f/fear_factory/what_will_become_tab_ver_2.html ]
D-----------------:----------------:-----------------:
A-----------------:----------------:-----------------:
F-----------------:----------------:-----------------:
C-----------------:-(then..)-0h7h9-:-----------------:
G-(repete 3x)-----:----------0h7h9-:-----------------:
D-9-9--9--9-9-9-9-:-9-9--9---------:-9-9--9--9-9-9-9-:
A-7-7--7--7-7-7-7-:-7-7--7---------:-7-7--7--7-7-7-7-:
  . .  .  . . . .   . .  .           . .  .  . . . . 

(per-chorus)
D----------------------------------------------
A----------------------------------------------
F---2-----2-----2-----6-----2-----2-----2------
C-2---2-3---3-4---4-5---5-2---2-3---3-4---4-5~-
G-2---2-3---3-4---4-5---5-2---2-3---3-4---4-5~-
D-0---0-1---1-2---2-3---3-0---0-1---1-2---2-3~-
A----------------------------------------------


D-------------------------------------------------------------------------------
A-------------------------------------------------------------------------------
F---------------------------------------------------------------------6(1/4 bend)
C---------------------------------------------------------------------6(1/4 bend)
G--------------------------------------------------------------------------------
D--------------------------------------------------------------------------------
A-2-2--3p2--2-2--3--2-2--3p2--2-2--3--2-2--3p2--2-2--3--2-2--3p2--2-2------------

D--------------------------------------------------------------------------------
A--------------------------------------------------------------------------------
F--------------------------------------------------------------------------------
C--------------------------------------------------------------------------------
G--------------------------------------------------------------------------------
D--------------------------------------------------------------------------------
A-2-2--3p2--2-2--3--2-2--3p2--2-2--3--2-2--3p2--2-2--3--2-2--3p2--2-2------------


D-------------------------------------------------
A-------------------------------------------------
F------------(this is where he screams "ETERNITY")
C-------------------------------------------------
G-(repete 8x)-------------------------------------
D-7-7-7-7-7---------------------------------------
A-5-5-5-5-5---------------------------------------

(the notes in [] are notes played by Raymond)

D-[15]-------------------[15]------------------------
A----------------------------[15]--------------------
F----------------------------------------------------
C---2-----2-----2-----6-----2-----2-----2------------
G-2---2-3---3-4---4-5---5-2---2-3---3-4---4-5--------
D----------------------------------------------------
A----------------------------------------------------


D-[15]-------------------[15]------------------------
A----------------------------[15]--------------------
F----------------------------------------------------
C---2-----2-----2-----6-----2-----2-----2------------
G-2---2-3---3-4---4-5---5-2---2-3---3-4---4-5--------
D----------------------------------------------------
A----------------------------------------------------


D----------------------------------------------
A----------------------------------------------
F---2-----2-----2-----6-----2-----2-----2------
C-2---2-3---3-4---4-5---5-2---2-3---3-4---4-5~-
G-2---2-3---3-4---4-5---5-2---2-3---3-4---4-5~-
D-0---0-1---1-2---2-3---3-0---0-1---1-2---2-3~-
A----------------------------------------------

D--------------------------------------------
A--------------------------------------------
F--------------------------------------------
C-2-2-2-2-2--3-3-3-3-3--4-4-4-4-4--5-5-5-5-5-
G-2-2-2-2-2--3-3-3-3-3--4-4-4-4-4--5-5-5-5-5-
D-0-0-0-0-0--1-1-1-1-1--2-2-2-2-2--3-3-3-3-3-
A--------------------------------------------

D-------------------------------------------------------------
A-------------------------------------------------------------
F-------------------------------------------------------------
C-2-2-2-2-2--3-3-3-3-3--4-4-4-4-4--5-5-5-5-5------------------
G-2-2-2-2-2--3-3-3-3-3--4-4-4-4-4--5-5-5-5-5--7-7-7-7-7-7-7-7-
D-0-0-0-0-0--1-1-1-1-1--2-2-2-2-2--3-3-3-3-3--5-5-5-5-5-5-5-5-
A-------------------------------------------------------------
                                              . . . . . . . . 


D-------------------------------------------------------------------------------
A-------------------------------------------------------------------------------
F---------------------------------------------------------------------6(1/4 bend)
C---------------------------------------------------------------------6(1/4 bend)
G--------------------------------------------------------------------------------
D--------------------------------------------------------------------------------
A-2-2--3p2--2-2--3--2-2--3p2--2-2--3--2-2--3p2--2-2--3--2-2--3p2--2-2------------

D--------------------------------------------------------------------------------
A--------------------------------------------------------------------------------
F--------------------------------------------------------------------------------
C--------------------------------------------------------------------------------
G--------------------------------------------------------------------------------
D--------------------------------------------------------------------------------
A-2-2--3p2--2-2--3--2-2--3p2--2-2--3--2-2--3p2--2-2--3--2-2--3p2--2-2------------

D---------------:------------------
A---------------:------------------
F---------------:------------------
C-(repete 8x)---:------------------
G-4-4-5p4-4-4-5-:-(repete 8x)------
D---------------:-4-4--5\4--4-4--5-
A---------------:-2-2--3\2--2-2--3-
Comments