Fear Factory - Slave Labor Chords & Tabs

 

Slave Labor Chords & Tabs

Fear Factory Chords & Tabs

Version: 2 Type: Tab 0 ratings
1 star 2 stars 3 stars 4 stars 5 stars
comments

Slave Labor Tab

   
-------------------------------------------------------------------------------
			                  Slave Labor - Fear Factory
-------------------------------------------------------------------------------

I found a relatively good version on the site and used
it as a template.
The tab is unregistered so thanks, whoever you are ;)


 Intro

e|---------------------------------------------------------------------------|
B|---------------------------------------------------------------------------|
G|---------------------------------------------------------------------------|
D|---------------------------------------------------------------------------|
A|---------------------------------------------------------------------------|
E|---------------------------------DON\'T PLAY THE LAST THREE 3\'S-----------|
B|-4-333-3-333-4-333-4-333-333-333-ON THE LAST TIME--------------------------|
   . ... . ... . ... . ... ... ...
 
 			 				  1,2,3,4
e|-------------------------|---------|---------------------------------------|
B|-------------------------|---------|---------------------------------------|
G|-------------------------|---------|---------------------------------------|
D|-------------------------|---------|---------------------------------------|
A|-------------------------|---------|---------------------------------------|
E|-------------------------|---------|---------------------------------------|
B|-4-333-3-333-4-333-4-333-|-333-333-|-66666666------------------------------|
   . ... . ... . ... . ...   ... ...   ........

 Verse

              x3
e|-------------|-------------------------------------------------------------|
B|-------------|-------------------------------------------------------------|
G|-------------|-------------------------------------------------------------|
D|-------------|-------------------------------------------------------------|
A|-------------|-------------------------------------------------------------|
E|-------------|-------------------------------------------------------------|
B|-4-333-3-333-|-666-666-----------------------------------------------------|
   . ... . ...   ... ...

 Pre-Chorus

e|---------------------------------------------------------------------------|
B|---------------------------------------------------------------------------|
G|---------------------------------------------------------------------------|
D|---------------------------------------------------------------------------|
A|---------------------------------------------------------------------------|
E|-8-8-8-8-8-8-8-8-8-8-8-8-8-8-8-8-6-6-6-6-6-6-6-6-6-6-6-6-6-6-6-6-----------|
B|-6-6-6-6-6-6-6-6-6-6-6-6-6-6-6-6-4-4-4-4-4-4-4-4-4-4-4-4-4-4-4-4-----------|
                                                   . . . . . . . .

 *Chorus
[ Tab from: http://www.guitartabs.cc/tabs/f/fear_factory/slave_labor_tab_ver_2.html ]
e|---------------------------------------------------------------------------|
B|---------------------------------------------------------------------------|
G|---------------------------------------------------------------------------|
D|---------------------------------------------------------------------------|
A|---------------------------------------------------------------------------|
E|---------------------------------------------------------------------------|
B|-3\"--------1\"----4\"----4-444-4-3\"--------6\"----4\"----4-444-4---------|
   .         .     .     . ... . .         .     .     . ... .

 *Sorry I didn\'t tab out the exact number of of tremlo picked notes.
  I thought it would look too messy.

 Bridge

e|---------------------------------------------------------------------------|
B|---------------------------------------------------------------------------|
G|---------------------------------------------------------------------------|
D|---------------------------------------------------------------------------|
A|---------------------------------------------------------------------------|
E|---------------------------------------------------------------------------|
B|-4-3--3-44-3-4-3--44-3-----------------------------------------------------|


e|---------------------------------------------------------------------------|
B|---------------------------------------------------------------------------|
G|---------------------------------------------------------------------------|
D|---------------------------------------------------------------------------|
A|---------------------------------------------------------------------------|
E|-6-5--5-66-5-6-5--66-5-----------------------------------------------------|
B|-4-3--3-44-3-4-3--44-3-----------------------------------------------------|

 End Bridge Part 1

e|---------------------------------------------------------------------------|
B|---------------------------------------------------------------------------|
G|---------------------------------------------------------------------------|
D|---------------------------------------------------------------------------|
A|---------------------------------------------------------------------------|
E|---------------------------------------------------------------------------|
B|-6-6-6-6-6-6-6-6-4-4-4-4-4-4-4-4-------------------------------------------|

 End Bridge Part 2

e|---------------------------------------------------------------------------|
B|---------------------------------------------------------------------------|
G|---------------------------------------------------------------------------|
D|---------------------------------------------------------------------------|
A|---------------------------------------------------------------------------|
E|-------------------------------------------------6-6-6-6-6-6-6-6-----------|
B|-6-6-6-6-6-6-6-6-4-4-4-4-4-4-4-4-4-4-4-4-4-4-4-4-4-4-4-4-4-4-4-4-----------|
                                   . . . . . . . . . . . . . . . .


 | /  slide up
 | \\  slide down
 | h  hammer on
 | p  pull off
 | b  bend
 | r  release
 | ~  vibrato
 | +  harmonic
 | .  palm mute
 | \"  trem pick
 | <  volume swell

Any comments or suggestions email: saltmakesmecough@yahoo.co.uk
===============================================================================
Comments