Fear Factory - Securitron Chords & Tabs

 

Securitron Chords & Tabs

Fear Factory Chords & Tabs

Version: 1 Type: Bass Tab 0 ratings
1 star 2 stars 3 stars 4 stars 5 stars
comments

Securitron Bass Tab

Song: Securitron
Artist: Fear Factory
Album: Obsolete
Tabber: Garrett Wojcik (ToxicatedX@aol.com)

This is a phat song, & the chorus is brilliant...
I've tabbed this for a 4-string bass.
Tune to dropped D (Low to high is DADG).

Intro
G--------------------------------------
D--------------------------------------
A--------------------------------------
D---0000000010----------Do this 4x----- Then...

G--------------------------------------
D--------------------------------------
A------------------------------Do this 16x
D---0000000010--0--1--0-0-1------------  Then...

Verse
G--------------------------------------
D--------------------------------------
A-------------------------------Do this 8x
D---0-0-0-0-1-0--0--1--0-0-1-----------

Then do the PREVIOUS riff 8x...Then...

G----------------------------------------------------
D----------------------------------------------------
A----------------------------------------------------
D--555555-5-5-55-55-333333-3-3-33-33-222222-2-2-22-22
[ Tab from: http://www.guitartabs.cc/tabs/f/fear_factory/securitron_btab.html ]
G----------------------------------------------------
D----------------------------------------------------
A----------------------------------------------------
D--000010--0--1-0-0-1---000010--0--1-0-0-1-----------

Do the verse again 8x...Then...

Chorus
G--------------------------------------
D--------------------------------------
A--------------------------------------
D--5-----757-7--3--757-7--2--2--3-3-3--Do this 2x Then...

G--------------------------------------
D--------------------------------------
A--------------------------------------
D--5-5-5-5-757-7-3-3-757-7-2-2-757-7-3-Do this 2x Then...

I believe the middle parts all kind of go like this:
G--------------------------------------
D--------------------------------------
A--------------------------------------
D-0--1--0--3--0--1--0--1--0--3--0--1---A bunch of times.

Then the first riff goes 8x I believe...
Then the do the two chorus riffs...Then...

Breakdown
G---------------------------------------------
D---------------------------------------------
A---------------------------------------------
D-5-5-5-55-5757-7--3--5757-7--2--5757-7--3---Do this 4x

And that's it!! The middle part cannot be played
on a 4-string, thats why it won't really sound right,
so do what you want during those parts.

Comments