Fear Factory - Linchpin Chords & Tabs

 

Linchpin Chords & Tabs

Fear Factory Chords & Tabs

Version: 1 Type: Tab 0 ratings
1 star 2 stars 3 stars 4 stars 5 stars
comments

Linchpin Tab

Linchpin by Fear Factory
Tune your six string to A D G C F A for best results ( or get a 7 string)
Tabbed by Ethan
Clarkee34@hotmail.com

-----------------------------------------------------
-----------------------------------------------------
-----------------------------------------------------
-----------------------------------------------------
-----------------------------------------------------
-1p0-1p0----1p0-1p0-1p0--1p0-1p0-1p0---1p0-1p0-1p0---

-----------------------------------------------------
-----------------------------------------------------
-----------------------------------------------------
-----------------------------------------------------
-----------------------------------------------------
--0--0-1---1-0-0--1--1-------------------------------

p.m.................
-----------------------------------------------------
-----------------------------------------------------
-----------------------------------------------------
-----------------------------------------------------
-----------------------------------------------------
--1-1-1-1--1--1-1-1----------------------------------

p.m.................
-----------------------------------------------------
-----------------------------------------------------
-----------------------------------------------------
-----------------------------------------------------
-----------------------------------------------------
-1111111-1111--1-111---------------------------------

chorus
     p.m...       ..    .        .
-------------------------------------------------------------------------
-------------------------------------------------------------------------
-------------------------------------------------------------------------
---7--------7---7----7-----5--5----5---5---5----7--7777-7-7--7---7----
---5--5-5-5-5---5--5-7--0--3--3--0-2---2---2p0--5--5555-5-5--5-0-7----
----------------------------------------------------------------------0--
[ Tab from: http://www.guitartabs.cc/tabs/f/fear_factory/linchpin_tab.html ]
--------------------0----------------0-----0-----------------------------
-----------------------0-----------0-------------------------------------
-------------------------------------------------------------------------
-------------5---0---------0-2---3---------------------------------------
--3--3----5--3-------------------------3------3--------------------------
--1--1--0-3--------------------------------------------------------------

                                p.m.
-----0-------------------------------------------------------
-------0--------------0-----0--------------------------------
-------------------1-----0-----------------------------------
---0----------0-2--------------------------------------------
-------------------------------------6-5-3-------------------
--------------------------------0-0--4-3-1-------------------

Bridge
   p.m.  .....
-------------------------------------------------------------
-------------------------------------------------------------
-------------------------------------------------------------
-------------------------------------------------------------
-6------5------3-2------------------------------------------- x7
-4-4444-3-3333-1-0-------------------------------------------

   p.m.............
----------------------------------------------------------
----------------------------------------------------------
----------------------------------------------------------
----------------------------------------------------------
-6------5------------------------------------------------- 
-4-4444-3-3333-3333---------------------------------------

-------------------------------------------------------------
-------------------------------------------------------------
--7777777777777777777-555555---------------------------------
--xxxxxxxxxxxxxxxxxxx-xxxxxx--------------------------------- x3
--5555555555555555555-333333---------------------------------
-------------------------------------------------------------

                                        p.m.        
-------------------|-------------------------|------------------
-------------------|--------0-------0--------|------------------
--77777777-777-----|---1-------0-------------|------------------
--xxxxxxxx-xxx-----|-------------------------|------------------
--55555555-555--7--|-------------------------|--6--5--3---------
-------------------|--------------------0--0-|--4--3--1---------
Comments