Fear Factory - Invisible Wounds Chords & Tabs

 

Invisible Wounds Chords & Tabs

Fear Factory Chords & Tabs

Version: 5 Type: Tab

Invisible Wounds Tab

   
                         INVISIBLE WOUNDS (DARK BODIES)
                           As recorded by Fear Factory
                        (From the 2000 Album DIGIMORTAL)

Words and Music by Burton C. Bell, Dino Cazares, Christian Olde Wolbers, Raymond Herrera
Arranged by Burton C. Bell, Dino Cazares, Christian Olde Wolbers, Raymond Herrera

          A5                   B5                   G5                   C5
     x x 0 2 2 x x        x x 2 4 4 x x        x 3 5 5 x x x        x x 3 5 5 x x

          D5                   C5I                B5open
     x x 5 7 7 x x        1 3 3 x x x x        0 2 2 x x x x

Gtr I (G C F Bb Eb G C) - 'Clean'
Gtr II, III (G C F Bb Eb G C) - 'Dino Cazares'

 Intro
  Slow But Heavy Metal Q=80
 4/4
  Gtr I
  E S S E S E S E S S S S   E S S E S E S E S S S S
|-------------------------|-------------------------|
|-------------------------|-------------------------|
|-------2---2---2---2h4-4-|-------2---2---2---2h4-4-|
|-------------------------|-------------------------|
|-0-0-0---0---0---0-------|-------------------------|
|-------------------------|-3-3-3---3---3---3-------|
|-------------------------|-------------------------|


                  |-3-|
  E S S E S E S E E E E   E S S E S E S E S E S
|-----------------------|-----------0-------0---|
|-------1---1---1-------|-------1-------1-----1-|
|-----------------------|-----------------------|
|-----------------------|-0-0-0---0---0---0-----|
|-3-3-3---3---3---3-2-3-|-----------------------|
|-----------------------|-----------------------|
|-----------------------|-----------------------|


  A5                B5  A5  G5                B5
  Gtr II
  E S S E S E S E S S S S   E S S E S E S E S S S S
|-------------------------|-------------------------|
|-------------------------|-------------------------|
|-2-2-2-2-2-2-2-2-2S4-4-2-|-------------------4-4-4-|
|-2-2-2-2-2-2-2-2-2S4-4-2-|-5-5-5-5-5-5-5-5-5-4-4-4-|
|-0-0-0-0-0-0-0-0-0S2-2-0-|-5-5-5-5-5-5-5-5-5-2-2-2-|
|-------------------------|-3-3-3-3-3-3-3-3-3-------|
|-------------------------|-------------------------|


  C5                B5C5  D5
                                              PM--------|
                  |-3-|
  E S S E S E S E E E E   E S S E S S E S S S T T T T T T
|-----------------------|----------------------------------|
|-----------------------|----------------------------------|
|-5-5-5-5-5-5-5-5-5-4-5-|-7-7-7-7-7-7-7-7-7-7-7-7-7-7-7-7--|
|-5-5-5-5-5-5-5-5-5-4-5-|-7-7-7-7-7-7-7-7-7-7-7-7-7-7-7-7--|
|-3-3-3-3-3-3-3-3-3-2-3-|-5-5-5-5-5-5-5-5-5-5-5-5-5-5-5-5--|
|-----------------------|----------------------------------|
|-----------------------|----------------------------------|


 Verse
  Gtr I
  E S S E S E S E S S S S   E S S E S E S E S S S S
|-------------------------|-------------------------|
|-------------------------|-------------------------|
|-------2---2---2---2h4-4-|-------2---2---2---2h4-4-|
|-------------------------|-------------------------|
|-0-0-0---0---0---0-------|-------------------------|
|-------------------------|-3-3-3---3---3---3-------|
|-------------------------|-------------------------|


                  |-3-|
  E S S E S E S E E E E   E S S E S E S E S E S
|-----------------------|-----------0-------0----|
|-------1---1---1-------|-------1-------1-----1--|
|-----------------------|------------------------|
|-----------------------|-0-0-0---0---0---0------|
|-3-3-3---3---3---3-2-3-|------------------------|
|-----------------------|------------------------|
|-----------------------|------------------------|


                                                                  |-3-|
  E S S E S E S E S E S   E S S E S E S E S E S   E S S E S E S E E E E   W
|-------------------2---|-------------------2---|-----------------------|------|
|-------3---3---3-----3-|-------3---3---3-----3-|-------1---1---1-------|------|
|-----------------------|-----------------------|-----------------------|------|
|-----------------------|-----------------------|-----------------------|-0----|
|-0-0-0---0---0---0-----|-----------------------|-3-3-3---3---3---3-2-3-|------|
|-----------------------|-3-3-3---3---3---3-----|-----------------------|------|
|-----------------------|-----------------------|-----------------------|------|


 Chorus
  A5                B5  A5  G5                B5
  Gtr II
  E S S E S E S E S S S S   E S S E S E S E S S S S
|-------------------------|-------------------------|
|-------------------------|-------------------------|
|-2-2-2-2-2-2-2-2-2S4-4-2-|-------------------4-4-4-|
|-2-2-2-2-2-2-2-2-2S4-4-2-|-5-5-5-5-5-5-5-5-5-4-4-4-|
|-0-0-0-0-0-0-0-0-0S2-2-0-|-5-5-5-5-5-5-5-5-5-2-2-2-|
|-------------------------|-3-3-3-3-3-3-3-3-3-------|
|-------------------------|-------------------------|


  C5                B5C5  D5
                                              PM--------|
                  |-3-|
  E S S E S E S E E E E   E S S E S S E S S S T T T T T T
|-----------------------|----------------------------------|
|-----------------------|----------------------------------|
|-5-5-5-5-5-5-5-5-5-4-5-|-7-7-7-7-7-7-7-7-7-7-7-7-7-7-7-7--|
|-5-5-5-5-5-5-5-5-5-4-5-|-7-7-7-7-7-7-7-7-7-7-7-7-7-7-7-7--|
|-3-3-3-3-3-3-3-3-3-2-3-|-5-5-5-5-5-5-5-5-5-5-5-5-5-5-5-5--|
|-----------------------|----------------------------------|
|-----------------------|----------------------------------|


  A5                B5  A5    G5                B5
  E S S E S E S E S S S  S    E S S E S E S E S S S  S
|---------------------------|---------------------------|
|---------------------------|---------------------------|
|-2-2-2-2-2-2-2-2-2S4-4--2--|-------------------4-4--4--|
|-2-2-2-2-2-2-2-2-2S4-4--2--|-5-5-5-5-5-5-5-5-5-4-4--4--|
|-0-0-0-0-0-0-0-0-0S2-2--0--|-5-5-5-5-5-5-5-5-5-2-2--2--|
|---------------------------|-3-3-3-3-3-3-3-3-3---------|
|---------------------------|---------------------------|
|
| Gtr III
| E S S E S E S E S E   +S    E S S E S E S E S E   +S
|---------------------------|---------------------------|
|---------------------------|---------------------------|
|-------2---2---0---4---(4)-|-------2---2---0---4---(4)-|
|---------------------------|---------------------------|
|-0-0-0---0---0---0---------|---------------------------|
|---------------------------|-3-3-3---3---3---3---------|
|---------------------------|---------------------------|


  C5                B5C5  D5
                                              PM--------|
                  |-3-|
  E S S E S E S E E E E   E S S E S S E S S S T T T T T T
|-----------------------|----------------------------------|
|-----------------------|----------------------------------|
|-5-5-5-5-5-5-5-5-5-4-5-|-7-7-7-7-7-7-7-7-7-7-7-7-7-7-7-7--|
|-5-5-5-5-5-5-5-5-5-4-5-|-7-7-7-7-7-7-7-7-7-7-7-7-7-7-7-7--|
|-3-3-3-3-3-3-3-3-3-2-3-|-5-5-5-5-5-5-5-5-5-5-5-5-5-5-5-5--|
|-----------------------|----------------------------------|
|-----------------------|----------------------------------|
|
|                 |-3-|
| E S S E S E S E E E E   W
|-----------------------|----------------------------------|
|-------1---0---1---0-1-|----------------------------------|
|-----------------------|----------------------------------|
|-----------------------|----------------------------------|
|-3-3-3---3---3---3-----|----------------------------------|
|-----------------------|----------------------------------|
|-----------------------|----------------------------------|


 Verse
  Gtr I
  Wx2
|--------|
|--------|
|--------|
|--------|
|--------|
|--------|
|--------|


                  |-3-|
  E S S E S E S E E E E   E S S E S E S E S E S
|-----------------------|-----------0-------0---|
|-------1---1---1-------|-------1-------1-----1-|
|-----------------------|-----------------------|
|-----------------------|-0-0-0---0---0---0-----|
|-3-3-3---3---3---3-2-3-|-----------------------|
|-----------------------|-----------------------|
|-----------------------|-----------------------|


  E S S E S E S E S E S   E S S E S E S E S E S
|-------------------2---|-------------------2---|
|-------3---3---3-----3-|-------3---3---3-----3-|
|-----------------------|-----------------------|
|-----------------------|-----------------------|
|-0-0-0---0---0---0-----|-----------------------|
|-----------------------|-3-3-3---3---3---3-----|
|-----------------------|-----------------------|


                  |-3-|
  E S S E S E S E E E E   W
|-----------------------|------|
|-------1---1---1-------|------|
|-----------------------|------|
|-----------------------|-0----|
|-3-3-3---3---3---3-2-3-|------|
|-----------------------|------|
|-----------------------|------|


 Chorus
  A5                B5  A5  G5                B5
  Gtr II
  E S S E S E S E S S S S   E S S E S E S E S S S S
|-------------------------|-------------------------|
|-------------------------|-------------------------|
|-2-2-2-2-2-2-2-2-2S4-4-2-|-------------------4-4-4-|
|-2-2-2-2-2-2-2-2-2S4-4-2-|-5-5-5-5-5-5-5-5-5-4-4-4-|
|-0-0-0-0-0-0-0-0-0S2-2-0-|-5-5-5-5-5-5-5-5-5-2-2-2-|
|-------------------------|-3-3-3-3-3-3-3-3-3-------|
|-------------------------|-------------------------|


  C5                B5C5  D5
                  |-3-|
  E S S E S E S E E E E   S S S S S S S S S S S S S S S S
|-----------------------|----------------------------------|
|-----------------------|----------------------------------|
|-5-5-5-5-5-5-5-5-5-4-5-|-7-7-7-7-7-7-7-7-7-7-7-7-7-7-7-7--|
|-5-5-5-5-5-5-5-5-5-4-5-|-7-7-7-7-7-7-7-7-7-7-7-7-7-7-7-7--|
|-3-3-3-3-3-3-3-3-3-2-3-|-5-5-5-5-5-5-5-5-5-5-5-5-5-5-5-5--|
|-----------------------|----------------------------------|
|-----------------------|----------------------------------|


  A5                  B5    G5                  B5
    PM|   PM|   PM|           PM|   PM|   PM|
  E S S E S S E S S S S E   E S S E S S E S S S S E
|-------------------------|-------------------------|
|-------------------------|-------------------------|
|-2-2-2-2-2-2-2-2-2-2S4-4-|---------------------4-4-|
|-2-2-2-2-2-2-2-2-2-2S4-4-|-5-5-5-5-5-5-5-5-5-5-4-4-|
|-0-0-0-0-0-0-0-0-0-0S2-2-|-5-5-5-5-5-5-5-5-5-5-2-2-|
|-------------------------|-3-3-3-3-3-3-3-3-3-3-----|
|-------------------------|-------------------------|

[ Tab from: http://www.guitartabs.cc/tabs/f/fear_factory/invisible_wounds_tab_ver_5.html ]
  C5                  B5C5  D5
    PM|   PM|   PM|         PM----------------|
                    |-3-|
  E S S E S S E S S E E E   S E S S E S S E S E E
|-------------------------|-----------------------|
|-------------------------|-----------------------|
|-5-5-5-5-5-5-5-5-5-5-4-5-|-7-7-7-7-7-7-7-7-7-7---|
|-5-5-5-5-5-5-5-5-5-5-4-5-|-7-7-7-7-7-7-7-7-7-7---|
|-3-3-3-3-3-3-3-3-3-3-2-3-|-5-5-5-5-5-5-5-5-5-5---|
|-------------------------|-----------------------|
|-------------------------|-----------------------|


 Bridge
  C5I B5opC5I B5C5InB5opC5I B5C5InB5openC5I B5opC5I
                                       2/4
  T T E S T T S T T E S T T S T T E S   T T E S T T T T T T T T
|-------------------------------------|--------------------------|
|-------------------------------------|--------------------------|
|-------------------------------------|--------------------------|
|-------------------------------------|--------------------------|
|-3-3-2-2-3-3-2-3-3-2-2-3-3-2-3-3-2-2-|-3-3-2-2-3-3-3-3-3-3-3-3--|
|-3-3-2-2-3-3-2-3-3-2-2-3-3-2-3-3-2-2-|-3-3-2-2-3-3-3-3-3-3-3-3--|
|-1-1-0-0-1-1-0-1-1-0-0-1-1-0-1-1-0-0-|-1-1-0-0-1-1-1-1-1-1-1-1--|


  C5I B5opC5I B5C5InB5opC5I B5C5InB5openC5I
 4/4                                   2/4
  T T E S T T S T T E S T T S T T E S   T T T Q  E T
|-------------------------------------|--------------|
|-------------------------------------|--------------|
|-------------------------------------|--------------|
|-------------------------------------|--------------|
|-3-3-2-2-3-3-2-3-3-2-2-3-3-2-3-3-2-2-|-3-3-3--------|
|-3-3-2-2-3-3-2-3-3-2-2-3-3-2-3-3-2-2-|-3-3-3--------|
|-1-1-0-0-1-1-0-1-1-0-0-1-1-0-1-1-0-0-|-1-1-1--------|


  C5I B5opC5I B5C5InB5opC5I B5C5InB5openC5I B5opC5I
 4/4                                   2/4
  T T E S T T S T T E S T T S T T E S   T T E S T T T T T T T T
|-------------------------------------|-------------------------|
|-------------------------------------|-------------------------|
|-------------------------------------|-------------------------|
|-------------------------------------|-------------------------|
|-3-3-2-2-3-3-2-3-3-2-2-3-3-2-3-3-2-2-|-3-3-2-2-3-3-3-3-3-3-3-3-|
|-3-3-2-2-3-3-2-3-3-2-2-3-3-2-3-3-2-2-|-3-3-2-2-3-3-3-3-3-3-3-3-|
|-1-1-0-0-1-1-0-1-1-0-0-1-1-0-1-1-0-0-|-1-1-0-0-1-1-1-1-1-1-1-1-|


  C5I B5opC5I B5C5InB5opC5I B5C5InB5openC5I B5opC5I
 4/4                                   2/4
  T T E S T T S T T E S T T S T T E S   T T E S T T T T T T T T
|-------------------------------------|-------------------------|
|-------------------------------------|-------------------------|
|-------------------------------------|-------------------------|
|-------------------------------------|-------------------------|
|-3-3-2-2-3-3-2-3-3-2-2-3-3-2-3-3-2-2-|-3-3-2-2-3-3-3-3-3-3-3-3-|
|-3-3-2-2-3-3-2-3-3-2-2-3-3-2-3-3-2-2-|-3-3-2-2-3-3-3-3-3-3-3-3-|
|-1-1-0-0-1-1-0-1-1-0-0-1-1-0-1-1-0-0-|-1-1-0-0-1-1-1-1-1-1-1-1-|


 Breakdown
 4/4
  Gtr I
  E S S E S E S E S E +S    E S S E S E S E S E +S
|-------------------------|-------------------------|
|-------------------------|-------------------------|
|-------2---2---0---4-(4)-|-------2---2---0---4-(4)-|
|-------------------------|-------------------------|
|-0-0-0---0---0---0-------|-------------------------|
|-------------------------|-3-3-3---3---3---3-------|
|-------------------------|-------------------------|


  E S S E S E S E S E S   E S S E S E S E S E S
|-----------------------|-------------------------|
|-------1---0---1---0-1-|-------1---0---1---0-1---|
|-----------------------|-------------------------|
|-----------------------|-0-0-0---0---0---0-------|
|-3-3-3---3---3---3-----|-------------------------|
|-----------------------|-------------------------|
|-----------------------|-------------------------|


  E S S E S E S E S E +S    E S S E S E S E S E +S
|-------------------------|-------------------------|
|-------3---3---3---3-(3)-|-------3---3---3---3-(3)-|
|-------------------------|-------------------------|
|-------------------------|-------------------------|
|-0-0-0---0---0---0-------|-------------------------|
|-------------------------|-3-3-3---3---3---3-------|
|-------------------------|-------------------------|


  E S S E S E S E S E +S    W          +W
|-------------------------|----------|--------|
|-------3---3---3---3-(3)-|----------|--------|
|-------------------------|----------|--------|
|-------------------------|-0--------|-(0)----|
|-3-3-3---3---3---3-------|----------|--------|
|-------------------------|----------|--------|
|-------------------------|----------|--------|


 Chorus
  A5                B5  A5  G5                B5
  Gtr II
    PM|   PM  PM              PM|   PM  PM
  E S S E S E S E S S S S   E S S E S E S E S S S S
|-------------------------|-------------------------|
|-------------------------|-------------------------|
|-2-2-2-2-2-2-2-2-2S4-4-2-|-------------------4-4-4-|
|-2-2-2-2-2-2-2-2-2S4-4-2-|-5-5-5-5-5-5-5-5-5-4-4-4-|
|-0-0-0-0-0-0-0-0-0S2-2-0-|-5-5-5-5-5-5-5-5-5-2-2-2-|
|-------------------------|-3-3-3-3-3-3-3-3-3-------|
|-------------------------|-------------------------|


  C5                B5C5  D5
    PM|   PM  PM  PM                                PM--------|
                  |-3-|
  E S S E S E S E E E E   S S S S S S S S S S S S S T T T T T T
|-----------------------|---------------------------------------|
|-----------------------|---------------------------------------|
|-5-5-5-5-5-5-5-5-5-4-5-|-7-7-7-7-7-7-7-7-7-7-7-7-7-7-7-7-7-7-7-|
|-5-5-5-5-5-5-5-5-5-4-5-|-7-7-7-7-7-7-7-7-7-7-7-7-7-7-7-7-7-7-7-|
|-3-3-3-3-3-3-3-3-3-2-3-|-5-5-5-5-5-5-5-5-5-5-5-5-5-5-5-5-5-5-5-|
|-----------------------|---------------------------------------|
|-----------------------|---------------------------------------|


  A5                B5  A5    G5                B5
  E S S E S E S E S S S  S    E S S E S E S E S S S  S
|---------------------------|---------------------------|
|---------------------------|---------------------------|
|-2-2-2-2-2-2-2-2-2S4-4--2--|-------------------4-4--4--|
|-2-2-2-2-2-2-2-2-2S4-4--2--|-5-5-5-5-5-5-5-5-5-4-4--4--|
|-0-0-0-0-0-0-0-0-0S2-2--0--|-5-5-5-5-5-5-5-5-5-2-2--2--|
|---------------------------|-3-3-3-3-3-3-3-3-3---------|
|---------------------------|---------------------------|
|
| Gtr III
| E S S E S E S E S E   +S    E S S E S E S E S E   +S
|---------------------------|---------------------------|
|---------------------------|---------------------------|
|-------2---2---0---4---(4)-|-------2---2---0---4---(4)-|
|---------------------------|---------------------------|
|-0-0-0---0---0---0---------|---------------------------|
|---------------------------|-3-3-3---3---3---3---------|
|---------------------------|---------------------------|


  C5                B5C5  D5
                            PM|   PM|     PM|   PM--------|
                  |-3-|
  E S S E S E S E E E E   E S S E S S E   S S S T T T T T T
|-----------------------|-----------------------------------|
|-----------------------|-----------------------------------|
|-5-5-5-5-5-5-5-5-5-4-5-|-7-7-7-7-7-7-7---7-7-7-7-7-7-7-7-7-|
|-5-5-5-5-5-5-5-5-5-4-5-|-7-7-7-7-7-7-7---7-7-7-7-7-7-7-7-7-|
|-3-3-3-3-3-3-3-3-3-2-3-|-5-5-5-5-5-5-5---5-5-5-5-5-5-5-5-5-|
|-----------------------|-----------------------------------|
|-----------------------|-----------------------------------|
|
|                 |-3-|
| E S S E S E S E E E E   E S S E S E   S E   S E       S
|-----------------------|-----------------------------------|
|-------1---0---1---0-1-|-------1---0-----1-----0-------1---|
|-----------------------|-----------------------------------|
|-----------------------|-0-0-0---0-----0-----0-------------|
|-3-3-3---3---3---3-----|-----------------------------------|
|-----------------------|-----------------------------------|
|-----------------------|-----------------------------------|


  A5                  B5    G5                  B5
  Gtr II
    PM|   PM|   PM|           PM|   PM|   PM|
  E S S E S S E S S S S E   E S S E S S E S S S S E
|-------------------------|-------------------------|
|-------------------------|-------------------------|
|-2-2-2-2-2-2-2-2-2-2S4-4-|---------------------4-4-|
|-2-2-2-2-2-2-2-2-2-2S4-4-|-5-5-5-5-5-5-5-5-5-5-4-4-|
|-0-0-0-0-0-0-0-0-0-0S2-2-|-5-5-5-5-5-5-5-5-5-5-2-2-|
|-------------------------|-3-3-3-3-3-3-3-3-3-3-----|
|-------------------------|-------------------------|


  C5                  B5C5  D5
    PM|   PM|   PM|                                   PM--------|
                    |-3-|
  E S S E S S E S S E E E   S S S S S S S S S S S S S T T T T T T
|-------------------------|----------------------------------------|
|-------------------------|----------------------------------------|
|-5-5-5-5-5-5-5-5-5-5-4-5-|-7-7-7-7-7-7-7-7-7-7-7-7-7-7-7-7-7-7-7--|
|-5-5-5-5-5-5-5-5-5-5-4-5-|-7-7-7-7-7-7-7-7-7-7-7-7-7-7-7-7-7-7-7--|
|-3-3-3-3-3-3-3-3-3-3-2-3-|-5-5-5-5-5-5-5-5-5-5-5-5-5-5-5-5-5-5-5--|
|-------------------------|----------------------------------------|
|-------------------------|----------------------------------------|


  A5                  B5    G5                  B5
    PM|   PM|   PM|           PM|   PM|   PM|
  E S S E S S E S S S S E   E S S E S S E S S S S E
|-------------------------|-------------------------|
|-------------------------|-------------------------|
|-2-2-2-2-2-2-2-2-2-2S4-4-|---------------------4-4-|
|-2-2-2-2-2-2-2-2-2-2S4-4-|-5-5-5-5-5-5-5-5-5-5-4-4-|
|-0-0-0-0-0-0-0-0-0-0S2-2-|-5-5-5-5-5-5-5-5-5-5-2-2-|
|-------------------------|-3-3-3-3-3-3-3-3-3-3-----|
|-------------------------|-------------------------|


  C5                  B5C5  D5
    PM|   PM|   PM|
                    |-3-|
  E S S E S S E S S E E E   E H    Q  E
|-------------------------|-------------*|
|-------------------------|-------------*|
|-5-5-5-5-5-5-5-5-5-5-4-5-|-7-----------*|
|-5-5-5-5-5-5-5-5-5-5-4-5-|-7-----------*|
|-3-3-3-3-3-3-3-3-3-3-2-3-|-5-----------*|
|-------------------------|-------------*|
|-------------------------|-------------*|


Duration Legend
---------------
W - whole; H - half; Q - quarter; E - 8th; S - 16th; T - 32nd; X - 64th; a - acciaccatura
+ - note tied to previous; . - note dotted; .. - note double dotted
Uncapitalized letters represent notes that are staccato (1/2 duration)
Irregular groupings are notated above the duration line
Duration letters will always appear directly above the note/fret number it represents the
duration for.  Duration letters with no fret number below them represent rests.  Multi-
bar rests are notated in the form Wxn, where n is the number of bars to rest for.  Low
melody durations appear below the staff

Tablature Legend
----------------
 h   - hammer-on
 p   - pull-off
 b   - bend
 pb  - pre-bend
 r   - bend release (if no number after the r, then release immediately)
 /\  - slide into or out of (from/to "nowhere")
 s   - legato slide
 S   - shift slide
  - natural harmonic
[n]  - artificial harmonic
n(n) - tapped harmonic
 ~   - vibrato
 tr  - trill
 T   - tap
 TP  - trem. picking
 PM  - palm muting
\n/  - tremolo bar dip; n = amount to dip
 \n  - tremolo bar down
 n/  - tremolo bar up
/n\  - tremolo bar inverted dip
 =   - hold bend; also acts as connecting device for hammers/pulls
 <>  - volume swell (louder/softer)
 x   - on rhythm slash represents muted slash
 o   - on rhythm slash represents single note slash

Misc Legend
-----------
 |  - bar
||  - double bar
||o - repeat start
o|| - repeat end
*|  - double bar (ending)
 :  - bar (freetime)
 $  - Segno
 &  - Coda
Tempo markers -  = BPM(8/16=s8/s16), where s8 = swing 8ths, s16 = swing 16ths