Fear Factory - Invisible Wounds Drop D Chords & Tabs

 

Invisible Wounds Drop D Chords & Tabs

Fear Factory Chords & Tabs

Version: 1 Type: Tab 0 ratings
1 star 2 stars 3 stars 4 stars 5 stars
comments

Invisible Wounds Drop D Tab

   
#----------------------------------PLEASE NOTE--------------------------------#
#This file is the author's own work and represents their interpretation of the#
#song. You may only use this file for private study, scholarship, or research.#
#-----------------------------------------------------------------------------#
#-- File created with Instab - http://www.pconline.com/~smcarey/instab.html --#
#-----------------------------------------------------------------------------#

Author/Artist: Fear Factory
Title: Invisible Wounds (Dark Bodies)
Album: Digimortal
Transcribed by: Daniel Egan
Email: deeegzz@aol.com or deegz69@hotmail.com

This song is 100%correct. The only difficulty you may have is following
the songs script (refer to bottom of tab) i've added in the time when each
riff is played so it shouldn't give you much hassle.

This Song is fucking kickass and quiet simple to master
If you are having trouble dont hesitate to email me.

TUNING: Drop D  (D, A, D, G, B, e

RIFF 1
------------------------------------------------------------------------------
------------------------------------------------------------------------------
------------------------------------------------------------------------------
--------3---3---3---3-3/5--------3---3---3---3-3/5---------6---6---6----------
------------------------------------------------------------------------------
-3-33-----3---3---3--------1-11----3---3---3---------6-66----6---6---5-6-8----
                                                                       

------------------------------------------------------------------------------
------------------------------------------------------------------------------
-----------5-------5----------------------------------------------------------
-------6-------6-----6--------------------------------------------------------
------------------------------------------------------------------------------
-8-88----8---8---8------------------------------------------------------------
                                                                              

Riff 2 (Main RIff)
------------------------------------------------------------------------------
------------------------------------------------------------------------------
------------------------------------------------------------------------------
-3-3-3-3-3-3------1-1-1-1-1-1------6-6-6-6-6-6------8-8-8-8-8-8---------------
-3-3-3-3-3-3-x2---1-1-1-1-1-1-x2---6-6-6-6-6-6-x2---8-8-8-8-8-8-x2------------
-3-3-3-3-3-3------1-1-1-1-1-1------6-6-6-6-6-6------8-8-8-8-8-8---------------
                                                          

Riff 3
------------------------------------------------------------------------------
------------------------------------------------------------------------------
-------3---3---3---3---------3---3---3---3------------------------------------
---------------------3---------------------3--------6---6---6-----------------
------------------------------------------------------------------------------
-3-33----3---3---3-------1-11--3---3---3-------6-66---6---6---5-6-8-----------
                                                                     
[ Tab from: http://www.guitartabs.cc/tabs/f/fear_factory/invisible_wounds_drop_d_tab.html ]
Riff 4 (played over Riff 2 on occassion)
------------------------------------------------------------------------------
------------------------------------------------------------------------------
-------0-----------0----------------------------------------------------------
-3-3-1---1---3-3-1---1----6-0-6-0-6-------------------------------------------
------------------------------------------------------------------------------
------------------------------------------------------------------------------
                                                                       
Riff 5 
------------------------------------------------------------------------------
------------------------------------------------------------------------------
---------------------------------5-------5------------------------------------
------6---6---6--------------6-------6-----6----------------------------------
------------------------------------------------------------------------------
-6-66---6---6---5-6-8---8-88---8---8---8--------------------------------------
                                                    

Riff 6
------------------------------------------------------------------------------
------------------------------------------------------------------------------
------------------------------------------------------------------------------
-3-5-5-5------33333333----3-5-5-5--------3-5-5-5-------33333333---3-5-5-5-----
-3-5-5-5--x3--33333333----3-5-5-5-x3-----3-5-5-5--x3---33333333---3-5-5-5-x3--
-3-5-5-5------33333333----3-5-5-5--------3-5-5-5-------33333333---3-5-5-5-----
 Dark Dark Dark My life was so..                                                                  


------------------------------------------------------------------------------
------------------------------------------------------------------------------
------------------------------------------------------------------------------
-33333333---------------------------------------------------------------------
-33333333---------------------------------------------------------------------
-33333333---------------------------------------------------------------------
                                                                              

Riff 7
------------------------------------------------------------------------------
------------------------------------------------------------------------------
-------------------0---0------------------------------------------------------
-------0---------6---6---6--x2---3-3-3-3--3-3-3-3--3-3-3-3--------------------
-3-3-1---1--x2----------------------------------------------------------------
------------------------------------------------------------------------------
                 Unconscoious ...Blah..Blah..frozen in heaven (somin like that)
SONG SCRIPT Including times:

Riff 1 X1 00:00 - 00:12

Riff 2 X1 00:13 - 00:26

Riff 1 X1 00:27 - 00:39

Riff 3 X1 00:39 - 00:50

Riff 2 X2 00:50 - 01:16 

(Riff 4 X1 is played over riff 2 at 01:05 - 01:14)

Bass Riff 01:17 - 01:23

Riff 5 X1 01:23 - 01:29

Riff 3 X1 01:29 - 01:40

Riff 2 X2 01:41 - 02:03

Riff 6 x1 02:07 - 02:26

Riff 7 X1 02:26 - 02:48

Riff 2 X4 02:53 - 03:42 (end)

 (riff 4 is played over riff 2 at  03:07 - 03:20 
  this time riff 4 is slightly altered. At the end the 
  the 6 0 6 0 6 is repeated once.)


Comments