Fear Factory - Descent Chords & Tabs

 

Descent Chords & Tabs

Fear Factory Chords & Tabs

Version: 1 Type: Tab 0 ratings
1 star 2 stars 3 stars 4 stars 5 stars
comments

Descent Tab

   
Fear Factory-Descent
-Tuning-A,E,A,D,F#,B-


-Intro-
|---2-----2-----2-------2---------2-----2--------------|
|-----3-----3-----3---3---3---------3-----3------------|
|------------------------------------------------------|
|------------------------------------------------------|
|-------------------0----------------------------------|
|-2-----4-----5-------------(0)-2-----4-----0----------|
                             *

|---2-----2-----2-------2---------2-----2-----------------------|
|-----3-----3-----3---3---3---------3-----3---------------------|
|---------------------------------------------------------------|
|---------------------------------------------------------------|
|-------------------0-------------------------0--0-0--0-2--2-2--|
|-2-----4-----5-------------(0)-2-----4-----0-0--0-0--0-2--2-2--|
                             *              *    *    * 

Riff B

|---2-----2-----2-------2---------2-----2-----2-------2----|
|-----3-----3-----3---3---3---------3-----3-----3---3---3--|
|----------------------------------------------------------|
|----------------------------------------------------------|
|-------------------0--------------------------------------|
|-2-----4-----5-------------(0)-2-----4-----0-----2--------|
                             *

Riff C

Play chord and let it fade into the chorus

|-------------|
|-------------|
|-------------|
|--2----------|
|--2----------|
|--2----------|

Riff D

|------------------------------------|
|------------------------------------|
|------------------------------------|
|-2---(4)-4-4-4-4---4-5---(5)/7-7-7--|
|-2---(4)-4-4-4-4---4-5---(5)/7-7-7--|
|-2---(4)-4-4-4-4---4-5---(5)/7-7-7--|
       *
[ Tab from: http://www.guitartabs.cc/tabs/f/fear_factory/descent_tab.html ]
|----------------------------------------|
|----------------------------------------|
|----------------------------------------|
|-----2---(4)-4-4-4-4-------(2)---2-2-2--|
|-----2---(4)-4-4-4-4--------0----2-2-2--|
|-(0)-2---(4)-4-4-4-4---(0)--0----2-2-2--|
   *                     *

|----------------------------------------|
|----------------------------------------|
|----------------------------------------|
|-----2---(4)-4-4-4-4---4-5---(5)/7-7-7--|
|-----2---(4)-4-4-4-4---4-5---(5)/7-7-7--|
|-(0)-2---(4)-4-4-4-4---4-5---(5)/7-7-7--|
   *

|-------------------------------------------|
|-------------------------------------------|
|-------------------------------------------|
|-----2---(4)-4-4-4-4-----------------------|
|-----2---(4)-4-4-4-4-----0--0-0--0-2--2-2--|
|-(0)-2---(4)-4-4-4-4---0-0--0-0--0-2--2-2--|
   *                    *    *    *

Riff E

Play chord and then mute it (no sustain)

|-------------|
|-------------|
|-------------|
|--2----------|
|--2----------|
|--2----------|

Riff F

|-------------------------------------------------|
|-------------------------------------------------|
|-------------------------------------------------|
|-2--2-2/4-(4)-4-4-4---(4)-5--5--(5)/7-(7)-7-7-7--|
|-2--2-2/4-(4)-4-4-4---(4)-5--5--(5)/7-(7)-7-7-7--|
|-2--2-2/4-(4)-4-4-4---(4)-5--5--(5)/7-(7)-7-7-7--|

|----------------------------------------|
|----------------------------------------|
|----------------------------------------|
|-2-----(2)-(2)-----7-7------2-2------2--|
|-2------0---0------5-5------2-2------2--|
|-2------0---0------7-7------2-2------2--|

Riff G

Riff under "I am nothing..." etc.
|---------------------------------------------------|
|---------------------------------------------------|
|---------------------------------------------------|
|-2---2-----(2)---(2)-----7---7------2-2-----(0)-2--|
|-2---2------0-----0------5---5------2-2-----(0)-2--|
|-2---2------0-----0------7---7------2-2-----(0)-2--|
Comments