Fear Factory - Concreto Chords & Tabs

 

Concreto Chords & Tabs

Fear Factory Chords & Tabs

Version: 1 Type: Tab 0 ratings
1 star 2 stars 3 stars 4 stars 5 stars
comments

Concreto Tab

   
-Concreto-
By: Fear Factory
Album: Obsolete
Guitarist: Dino Cezares
Tabbed By: Brandon Moroch (chimaira1120@aol.com)
Tuning: A,D,G,C,f,A,D ( 7-string down 1 step )
Key: /= slide      *= palm mute
     p= pull-off   ^= bend
     h= hammer-on

I tabbed out all the different parts for this song. You can
figure out the order yourself. This song does not have many parts
to it but it is not an easy song to play. If you cant trill pick
note while simultaneously palm muting forget it. Make sure your
picking hand is well warmed up, the transitions between riffs is 
quick, listen to the cd to get the rythm. 



|--------------------------------------------------------|
|--------------------------------------------------------|
|--------------------------------------------------------|
|-----------------------------------------------------6--|
|-----------------------------------------------------6--|
|-----------------------------------------------------4--|
|--2222232222h33p2222222/55p33p223222222222h33p2222------|
   ***********************************************

|----------------------------------------------------------------|
|----------------------------------------------------------------|
|----------------------------------------------------------------|
|-------------------------------------------------------------6--|
|-------------------------------------------------------------8--|
|--2-2-2-2-2-33-3-3-2-2-2-2-2-5-5-33\2-2-2-2-2-2-3-3-3-2-2----6--|
|--2-2-2-2-2-33-3-3-2-2-2-2-2-5-5-33\2-2-2-2-2-2-3-3-3-2-2-2-----|
   * * * * * ** * * * * * * * * * ** * * * * * * * * * * * 

|---------|-----------------------------------------|
|---------|-----------------------------------------|
|---------|-----------------------------------------|
|---------|-----------------------------------------|
|---------|-----------------------------------------|
|--4-4-4--|--4-4-4----4-4-4----4-4-4-/3-3-3\-4-4-4--|
|--2-2-2--|--2-2-2----2-2-2----2-2-2-/1-1-1\-2-2-2--|
   * *       * *      * *      * *    * *    * * 
[ Tab from: http://www.guitartabs.cc/tabs/f/fear_factory/concreto_tab.html ]
|--------------------------------------------------------|
|--------------------------------------------------------|
|--------------------------------------------------------|
|--------------------------------------------------------|
|--------------------------------------------------------|
|--4-44-4/3---2-2-2-2-44-3---2-2-2-4-44-3---2-2-2--2-22--|
|--2-22-2/1-1-0-0-0-4-22-1-1-0-0-0-2-22-1-1-0-0-0--0-00--|
   * ** * * * * * * * ** * * * * * * ** * * * *    * ** 

|----------------------------------------------------------|
|----------------------------------------------------------|
|----------------------------------------------------------|
|-----------5-------------6-------------5^------------6^---|
|-----------7-------------8-------------7^------------8^---|
|--4-4-4----5----4-4-4----6----4-4-4---------4-4-4---------|
|--2-2-2---------2-2-2---------2-2-2---------2-2-2---------|
   * *           * *           * *           * *

|-------------------------------------------|
|-------------------------------------------|
|-------------------------------------------|
|---------5---------6---------5---------6---|
|---------7---------8---------7---------8---|
|---------5---------6-----------------------|
|--22222-----22222-----22222-----22222------|
   *****     *****     *****     *****

|--------------------------------------------------------------|
|--------------------------------------------------------------|
|--------------------------------------------------------------|
|--------------------------------------------------------------|
|--------------------------------------------------------------|
|--2-2-2-2-2-33-3-3-2-2-2-2-2-5-5-33\2-2-2-2-------------------|
|--2-2-2-2-2-33-3-3-2-2-2-2-2-5-5-33\2-2-2-2-222222222222222---|
   * * * * * ** * * * * * * * * * ** * * * *  **************

|---------------------------------------------------|-----|-----|
|---------------------------------------------------|-----|-----|
|---------------------------------------------------|-----|-----|
|---------------------------------------------------|--6--|--2--|
|---------------------------------------------------|--6--|--2--|
|---------------------------------------------------|--4--|--0--|
|--2222232222h33p2222222/55p33p223222222222h33p2222-|-----|--0--|
   ***********************************************
Comments