Fear Factory - Cars Chords & Tabs

 

Cars Chords & Tabs

Fear Factory Chords & Tabs

Version: 2 Type: Tab 0 ratings
1 star 2 stars 3 stars 4 stars 5 stars
comments

Cars Tab

Fear Factory - Cars
Tabbed By Leonard

Main riff
E-----------------------|                           
B-----------------------|                           
G-----------------------|                            
D|2-1-------------------|        3x then to part two          
A--------0-2-x-2-2-2-|
E-----------------------|
[ Tab from: http://www.guitartabs.cc/tabs/f/fear_factory/cars_tab_ver_2.html ]
Main riff Variation (part two)
E-------------------------------------||
B-------------------------------------||
G-------------------------------------||
D--------------------------------------||
A--0---4-0--x--x---------0---4-0---||-
E-4---------------------4-------------||-

Interulude
E-||---------------------------|---------------------|-
B-||---------------------------|---------------------|-
G-||.--------------------------|----------------0----|-
D-||.------2---------0--------|--------2---------4--|-
A-||---------2--2----4---4--|-----------2----------|-
E-||--0-----------------------|--0-------------------|-

Repeats Throughout The Song. Listen For Times And Measures.



Comments