Fear Factory - Cars Chords & Tabs

 

Cars Chords & Tabs

Fear Factory Chords & Tabs

Version: 2 Type: Bass Tab 0 ratings
1 star 2 stars 3 stars 4 stars 5 stars
comments

Cars Bass Tab

   
Band:  (Fear Factory / Gary Newman)
Album: (B Sides)
Song:  (Cars)

Copyright (c)  (Roadrunner Records?) (Unk)
Version 1.0 - (7/22/02)

Transcribed By: (Mike)
Email:          (Ironweight@hotmail.com)

Transcribed By: (Bryan)
Email:          (bryangrisham@cox.net)


.  - palm mute           /  - slide up to
\  - slide down to       ~  - vibrato
h  - hammer on           b  - Bend
p  - pull off            Suffixes for bend
t  - tap                 f  - full bend    h - half bend
ph - pinched harmonic    q  - quarter bend t - tap bend
*  - see comment         ^  - Hold bend    r release bend
x  - Stuccatto           ~  - vibrato bend
,  - slight palm mute    () - ghost note, sustained note
"  - tremolo note        <> - Trill

Tunning "Drop D" D A D G B E

	Fig. 1
|--------------------------|
|--------------------------|
|--------------------------|
|---7 \-6------------------|
|---5 \-4--5--7---7--7-----|
|----------5--7---7--7-----|
[ Tab from: http://www.guitartabs.cc/tabs/f/fear_factory/cars_btab_ver_2.html ]
	Fig. 2
|--------------------------|
|--------------------------|
|--------------------------|
|--------------------------|
|---4--5---9--5------------|
|---4--5---9--5------------|

	Fig. 3
|------------------------------------------------|
|------------------------------------------------|
|------------------------------------------------|
|-------5-----------------------5----------------|
|---0---3--7---9--10--9-----0---3--7---15--14----|
|---0------7---9--10--9-----0------7---15--14----|

                           |-1st-------------| |-2nd-------------|
|----------------------------------------------------------------|
|----------------------------------------------------------------|
|----------------------------------------------------------------|
|-------5--------------------------------------------------------|
|---0---3--7---9--10--9-----0--0---9--10--9------9--10--11--12---|
|---0------7---9--10--9-----0--0---9--10--9------9--10--11--12---|


               4x                                2x
     [Fig 1. 4x, Fig 2. 2x], Fig3. 1x, [Fig 1. 4x, Fig 2. 2x], Fig3. 
1x, 
     
               2x                                5x
     [Fig 1. 4x, Fig 2. 2x], Fig3. 1x, [Fig 1. 4x, Fig 2. 2x],Fig 1. 4x 
fade out...
Comments