Fear Factory - Cars Chords & Tabs

 

Cars Chords & Tabs

Fear Factory Chords & Tabs

Version: 1 Type: Bass Tab 0 ratings
1 star 2 stars 3 stars 4 stars 5 stars
comments

Cars Bass Tab

Here is a new tab.

Fear Factory - Cars
-------------------

Dropp D tunning.

Bass Figure 1
-------------

G--------------      G-------------
D--------------      D-------------
A-5-4---0-000-- (3x) A-5-4---0-0-0-
D-----5--------      D-----5-------

Bass Figure 2
-------------

G---------
D---------
A-----2---
D-4-5---5-

Bass Figure 3
-------------

G----------------------------------------------
D-------------------3-2------------------------
A---5---2-3-2---5----------5---2-3-2-----------
D-0---0-------0---0------0---0--------0-0-0000-
[ Tab from: http://www.guitartabs.cc/tabs/f/fear_factory/cars_btab.html ]
G---------------------------------------
D-------------------3-2-----------------
A---5---2-3-2---5----------5---2-3-2----
D-0---0-------0---0------0---0--------0-

How it's played:
----------------

Bass Figure 1      \
Bass Figure 2 (2x) / Do this four times
Bass Figure 3 
Bass Figure 1      \
Bass Figure 2 (2x) / Do this twice
Bass Figure 3
Bass Figure 1      \
Bass Figure 2 (2x) / Do this twice
Bass Figure 3
Bass Figure 1      \
Bass Figure 2 (2x) / Do this until fade
Ok, that's it, it's a very fun-easy to play, song. I think it's allright. 
BassGuy (FeTo): feto13@crosswinds.net (bassist of Zorribanda, chilean band) 
Comments