Fear Factory - Archetype Chords & Tabs

 

Archetype Chords & Tabs

Fear Factory Chords & Tabs

Version: 3 Type: Tab 0 ratings
1 star 2 stars 3 stars 4 stars 5 stars
comments

Archetype Tab

   
IN FLAMES: F(r)IEND

TUNING: [Bb]-[F]-[Bb]-[Eb]-[Ab]-[C]

AUTHOR'S NOTE: I KNOW THIS TAB LOOKS WACKED-OUT WHEN VIEWED ON THE NET, BUT TRUST
ME, IT'S NOT.  WHAT I SUGGEST TO DO FOR OPTIMUM VIEWING AND PRINTING IS THIS: [SELECT
ALL], THEN [COPY], THEN [PASTE] ONTO A NEW BLANK MICROSOFT WORD DOCUMENT.  ONCE IT'S
PASTED, GO TO [PAGE SETUP] IN THE [FILE] MENU, AND SELECT THE FOLLOWING MARGIN
PARAMETERS: TOP & BOTTOM - 0.5"; LEFT & RIGHT - 0.3".  THAT'S IT!  NOW YOU'VE GOT A
PERFECTLY PRINTER-FRIENDLY PIMPED-OUT TAB READY FOR RIPPIN'!


INTRO:
RHYTHM FIG.I: BOTH GUITARS PLAY 2 TIMES
  GUITAR I: (W/HEAVY DISTORTION)
||---------------------------------|--------------------------------|--------------------------------|
||---------------------------------|--------------------------------|--------------------------------|
||o--------------------------------|--------------------------------|--------------------------------|
||o--------------------------------|--------------------------------|--------------------------------|
||--0-0-0---0-0-0---0-0-0---0-0-0--|-0-0-0---0-0-0---0-0-0---0-0-0--|-0-0-0---0-0-0---0-0-0---0-0-0--|
||--0-0-0---0-0-0---0-0-0---0-0-0--|-0-0-0---0-0-0---0-0-0---0-0-0--|-0-0-0---0-0-0---0-0-0---0-0-0--|
||  PM...................................................................................................|
||
||GUITAR II: (W/HEAVY DISTORTION)
||---------------------------------|--------------------------------|--------------------------------|
||---------------------------------|--------------------------------|--------------------------------|
||o-7------------------------------|-10-------------\9--------------|-6------------------------------|
||o--------------------------------|--------------------------------|--------------------------------|
||--5------------------------------|-8--------------\7--------------|-4------------------------------|
||---------------------------------|--------------------------------|--------------------------------|

|--------------------------------|--------------------------------|---------------------------------||
|--------------------------------|--------------------------------|---------------------------------||
|--------------------------------|--------------------------------|--------------------------------o||
|--------------------------------|--------------------------------|--------------------------------o||
|-0-0-0---0-0-0---0-0-0---0-0-0--|-0-0-0---0-0-0---0-0-0---0-0-0--|-0-0-0---0-0-0---0-0-0---0-0-0---||
|-0-0-0---0-0-0---0-0-0---0-0-0--|-0-0-0---0-0-0---0-0-0---0-0-0--|-0-0-0---0-0-0---0-0-0---0-0-0---||
| PM...................................................................................................|
|
|--------------------------------|--------------------------------|---------------------------------||
|--------------------------------|--------------------------------|---------------------------------||
|-7------------------------------|-10-------------/13-------------|\12-------------\10-------------o||
|--------------------------------|--------------------------------|--------------------------------o||
|-5------------------------------|-8--------------/11-------------|\10-------------\8---------------||
|--------------------------------|--------------------------------|---------------------------------||

|------------------------|------------------------|------------------------|------------------------||
|------------------------|------------------------|------------------------|------------------------||
|-------]----------------|-]----------------------|-]----------------------|-]----------------------||
|-0-----]----------------|-]----------------------|-]----------------------|-]----------------------||
|-0----------------------|------------------------|------------------------|------------------------||
|-0----------------------|------------------------|------------------------|-------------------12\\\||
|
|------------------------|------------------------|------------------------|------------------------||
|------------------------|------------------------|------------------------|------------------------||
|-7-----]----------------|-]----------------------|-]----------------------|-]----------------------||
|-------]----------------|-]----------------------|-]----------------------|-]----------------------||
|-5----------------------|------------------------|------------------------|------------------------||
|------------------------|------------------------|------------------------|-------------------12\\\||

VERSE I:
RHYTHM FIG.II: BOTH GUITARS PLAY 4 TIMES
  BOTH GUITARS:
||-------------------------|------------------------|------------------------|-------------------------||
||-------------------------|------------------------|------------------------|-------------------------||
||o------------------------|------------------------|------------------------|------------------------o||
||o-7-----------------3----|-3----------------------|-7-----------------3----|-3----------------------o||
||--5-----0--0--0 ^1-------|-1--0--0--0--0--0--0--0-|-5-----0--0--0 ^1-------|-1--0--0--0--8--8--7--7--||
||--------0--0-----------0-|----0--0--0--0--0--0--0-|-------0--0-----------0-|----0--0--0--8--8--7--7--||
PM..|                 PM...............................................|        PM..|







VERSE BREAK:
RHYTHM FIG.III: BOTH GUITARS PLAY 2 TIMES
  GUITAR I:
||---------------------------------|---------------------------------||
||---------------------------------|---------------------------------||
||o--------------------------------|--------------------------------o||
||o--------------------------------|--------------------------------o||
||--0---0---8-------7 ^8 ^7-----7--|-0---0---3  /5---0---0---5  /7---||
||--0---0-------------------10-----|-0---0---3  /5---0---0---5  /7---||
||  PM.....|                           PM.....|          PM.....|
||
||GUITAR II:
||---------------------------------|---------------------------------||
||---------------------------------|---------------------------------||
||o--------------------------------|--------------------------------o||
||o---------7-------5 ^7 ^5-----5--|--------------------------------o||
||--0---0-------------------7------|-0---0---3  /5---0---0---5  /7---||
||--0---0--------------------------|-0---0---3  /5---0---0---5  /7---||
    PM.....|                           PM.....|          PM.....|

VERSE II:
BOTH GUITARS PLAY RHYTHM FIG.II 2 TIMES (SUB FILL A ON THE 2ND REPEAT)

FILL A:
  BOTH GUITARS:
||------------------------|------------------------|------------------------|------------------------||
||------------------------|------------------------|------------------------|------------------------||
||------------------------|------------------------|------------------------|------------------------||
||--^^^^^^^^^^-------3----|-3----------------------|-7-----------------3----|-3----------------------||
||-5--------------1-------|-1--0--0--0--0--0--0--0-|-5-----0--0--0 ^1-------|-1--0--0--0--8--8--7--7-||
||-------------0--------0-|----0--0--0--0--0--0--0-|-------0--0-----------0-|----0--0--0--8--8--7--7-||
  P.H         P.M              PM...............................................|        PM..|

PRE-CHORUS:
RHYTHM FIG.IV-A:
  BOTH GUITARS:
||--------------------------------|--------------------------------|
||--------------------------------|--------------------------------|
||--------------------------------|---------------------5----/7----|
||-----------------6-------6------|---------6-----5-----5----/7----|
||-0---0---0---0---6-------6------|-0---0---6-----5-----3----/5----|
||-0---0---0---0---6-------6------|-0---0---6-----5----------------|
   PM.............................|                   PM.....|

|--------------------------------|----------------------------------||
|--------------------------------|----------------------------------||
|--------------------------------|----------------------------------||
|-----------------6-------6------|---------6-----5-----3------------||
|-0---0---0---0---6-------6------|-0---0---6-----5-----3-----1---1--||
|-0---0---0---0---6-------6------|-0---0---6-----5-----3-----1---1--||
  PM.............................|                   PM.....|                    PM.....|

CHORUS:
RHYTHM FIG.IV: BOTH GUITARS PLAY 2 TIMES
  BOTH GUITARS:
||---------------------------------|--------------------------------|
||---------------------------------|--------------------------------|
||o--------------------------------|---------------------5-----7----|
||o-----------------6-------6------|---------6-----5-----5-----7----|
||--0-0-0---0-0-0---6-------6------|-0-0-0---6-----5-----3-----5----|
||--0-0-0---0-0-0---6-------6------|-0-0-0---6-----5----------------|
    PM.............................|                   PM.....|

|--------------------------------|-----------------------------------||
|--------------------------------|-----------------------------------||
|--------------------------------|----------------------------------o||
|-----------------6-------6------|---------6-----5-----3------------o||
|-0-0-0---0-0-0---6-------6------|-0-0-0---6-----5-----3-----1---1---||
|-0-0-0---0-0-0---6-------6------|-0-0-0---6-----5-----3-----1---1---||
  PM.............................|                   PM.....|                    PM.....|
VERSE BREAK:
BOTH GUITARS PLAY RHYTHM FIG.III 2 TIMES

VERSE III:
BOTH GUITARS PLAY RHYTHM FIG.II 2 TIMES

CHORUS:
BOTH GUITARS PLAY RHYTHM FIG.IV 2 TIMES

  GUITAR I:
|--------------------------------|--------------------------------||
|--------------------------------|--------------------------------||
|--------------------------------|--------------------------------||
|-0------------------------------|(0)-----------------------------||
|-0------------------------------|(0)-----------------------------||
|-0------------------------------|(0)----------------------12\\\\\||
|
|GUITAR II:
|--------------------------------|--------------------------------||
|--------------------------------|--------------------------------||
|-7------------------------------|(7)-----------------------------||
|-7------------------------------|(7)-----------------------------||
|-5------------------------------|(5)-----------------------------||
|-0------------------------------|(0)----------------------12\\\\\||
[ Tab from: http://www.guitartabs.cc/tabs/f/fear_factory/archetype_tab_ver_3.html ]
INTERLUDE: (6/4 TIME)
RHYTHM FIG.V-A: BOTH GUITARS PLAY 2 TIMES
  GUITAR I: (W/LO-FI FILTER AND VOLUME TURNED DOWN ABOUT HALF-WAY)
||-------------------------|------------------------|------------------------|-------------------------||
||-------------------------|------------------------|------------------------|-------------------------||
||o------------------------|------------------------|------------------------|------------------------o||
||o------------------------|------------------------|------------------------|------------------------o||
||-------------------------|------------------------|------------------------|-------------------------||
||--0-0-0---0---0---0---0--|-0-0-0---0---0---0---0--|-0-0-0---0---0-0-0---0--|-0-0-0---0---0---0---0---||
||  PM....................................................................................................|
||
||GUITAR II:
||-------------------------|------------------------|-------------------------|------------------------||
||-------------------------|------------------------|-------------------------|------------------------||
||o-7---]------------------|-]----------------------|-]-----------------------|-]---------------------o||
||o-7---]------------------|-]----------------------|-]-----------------------|-]---------------------o||
||--5----------------------|------------------------|-------------------------|------------------------||
||--0----------------------|------------------------|-------------------------|------------------------||

VERSE IV:
RHYTHM FIG.V-B: 
  BOTH GUITARS: (GTR.I LO-FI FILTER OFF; FULL VOLUME)
||------------------------|------------------------|------------------------|------------------------|
||------------------------|------------------------|------------------------|------------------------|
||------------------------|------------------------|------------------------|------------------------|
||------------------------|------------------------|------------------------|------------------------|
||------------------------|------------------------|------------------------|------------------------|
||-0-0-0---0---0---0---0--|-0-0-0---0---0---0---0--|-0-0-0---0---0-0-0---0--|-0-0-0---0---0---0---0--|
   PM..................................................................................................|

|------------------------|------------------------|------------------------|------------------------||
|------------------------|------------------------|------------------------|------------------------||
|------------------------|------------------------|------------------------|------------------------||
|------------------------|------------------------|------------------------|------------------------||
|------------------------|------------------------|------------------------|------------------------||
|-5-5-5---5---5---5---5--|-5-5-5---5---5-5-5---5--|-3-3-3---3---3-3-3---3--|-7-7-7---7---7---7---7--||
  PM...................................................................................................|








RHYTHM FIG.VI:
  BOTH GUITARS:
||------------------------|------------------------|------------------------|------------------------|
||------------------------|------------------------|------------------------|------------------------|
||------------------------|------------------------|------------------------|------------------------|
||------------------------|------------------------|------------------------|------------------------|
||------------------------|------------------------|------------------------|------------------------|
||-0-0-0---0---0-0-0---0--|-0---0-0-0---0-0-0---0--|-0-0-0---0---0-0-0---0--|-0---0-0-0---0-0-0---0--|
   PM...................................................................................................|

|------------------------|------------------------|------------------------|------------------------||
|------------------------|------------------------|------------------------|------------------------||
|------------------------|------------------------|------------------------|------------------------||
|------------------------|------------------------|-3---3---3---3---3---3--|/7---7---7---7---7---7--||
|------------------------|------------------------|-3---3---3---3---3---3--|/7---7---7---7---7---7--||
|-5-5-5---5---5-5-5---5--|-5---5-5-5---5-5-5---5--|-3---3---3---3---3---3--|/7---7---7---7---7---7--||
  PM....................................................................................................|

SOLO:
RHYTHM FIG.VII:
BOTH GUITARS PLAY 2 TIMES
  GUITAR I:
||-------------------------|------------------------|------------------------|------------------------|
||-------------------------|------------------------|------------------------|------------------------|
||o------------------------|------------------------|------------------------|------------------------|
||o-------------9-------10-|-------------7-------9--|-9  \8---8---8---8---8--|-8  \5---5---5---5---5--|
||--7---7---7-------7------|-7---7---7-------7------|-7  \6---6---6---6---6--|-6  \3---3---3---3---3--|
||-------------------------|------------------------|------------------------|------------------------|
||  PM.................|     P.M       PM.................|     P.M
||
||GUITAR II:
||--------------7-------8--|---------------------7--|-8---7------------------|-7----------------------|
||------7---8--------------|-----7---8---10--7------|---------10--8---7------|-----10--8---7----------|
||o-9---------------9------|-9----------------------|---------------------9--|-----------------9---7--|
||o------------------------|------------------------|------------------------|------------------------|
||-------------------------|------------------------|------------------------|------------------------|
||-------------------------|------------------------|------------------------|------------------------|

|------------------------|------------------------|------------------------|-------------------------||
|------------------------|------------------------|------------------------|-------------------------||
|------------------------|------------------------|------------------------|------------------------o||
|-------------9-------10-|-------------7-------9--|-9  \5---5---5---5---5--|-5  /8---8---8---8---8--o||
|-7---7---7-------7------|-7---7---7-------7------|-7  \3---3---3---3---3--|-3  /6---6---6---6---6---||
|------------------------|------------------------|------------------------|-------------------------||
| PM.................|     P.M       PM.................|
|
|-------------7-------8--|---------------------7--|-12--10--8--------------|-10--8---7---------------||
|-----7---8--------------|-----7---8---10--7------|-------------12--10--8--|-------------10--8---7---||
|-9---------------9------|-9----------------------|------------------------|------------------------o||
|------------------------|------------------------|------------------------|------------------------o||
|------------------------|------------------------|------------------------|-------------------------||
|------------------------|------------------------|------------------------|-------------------------||

VERSE V:
BOTH GUITARS PLAY RHYTHM FIG.VI 2 TIMES (GTR.II SUB FILL B THE FIRST TIME)

FILL B:  
  GUITAR II:
||------------------------|------------------------|------------------------|------------------------||
||------------------------|------------------------|------------------------|------------------------||
||------------------------|------------------------|------------------------|------------------------||
||-0----------------------|(0)---------------------|(0)---------------------|(0)---------------------||
||-0----------------------|(0)---------------------|(0)---------------------|(0)---------------------||
||-0----------------------|(0)---------------------|(0)---------------------|(0)---------------------||






RHYTHM BREAK:
  GUITAR I:
||--------------------------------||
||--------------------------------||
||--------------------------------||
||--------------------------------||
||--------------------------------||
||-0-0-0---0-0-0---0-0-0---0-0-0--||
|| PM.............................|
||
||GUITAR II:
||--------------------------------||
||--------------------------------||
||---]----------------------------||
||-0-]----------------------------||
||-0------------------------------||
||-0------------------------------||

BOTH GUITARS PLAY RHYTHM FIG.I 2 TIMES

CHORUS:
BOTH GUITARS PLAY RHYTHM FIG.IV 2 TIMES (SUB FILL C ON VERY LAST BAR)

FILL C:
 BOTH GUITARS:
|----------------------------------------------------------||
|----------------------------------------------------------||
|----------------------------------------------------------||
|---------6-----5-----3------------------------------------||
|-0-0-0---6-----5-----3-----1---1---1---1---1---1---1---1--||
|-0-0-0---6-----5-----3-----1---1---1---1---1---1---1---1--||
  PM.....|                    PM.................................................|

OUTRO:
BOTH GUITARS PLAY RHYTHM FIG.III 2 TIMES

  GUITAR I:
||--------------------------------|---------------------------------||
||--------------------------------|---------------------------------||
||--------------------------------|-------]-----------]-------------||
||--------------------------------|-------]-----------]-------------||
||-0---0---8-------7 ^8 ^7-----7--|-0---0-------0---0---------------||
||-0---0-------------------10-----|-0---0-------0---0---------------||
|| PM.....|                           PM.....|      PM.....|
||
||GUITAR II:
||--------------------------------|---------------------------------||
||--------------------------------|---------------------------------||
||--------------------------------|-------]-----------]-------------||
||---------7-------5 ^7 ^5-----5--|-------]-----------]-------------||
||-0---0-------------------7------|-0---0-------0---0---------------||
||-0---0--------------------------|-0---0-------0---0---------------||
   PM.....|                           PM.....|      PM.....|

END

ADDITIONAL AUTHOR'S NOTE: YOU'LL NOTICE THAT I HAVE ONLY INCLUDED THE TABS FOR TWO
GUITARS THROUGHOUT - THE REASON I'VE DONE THIS IS FOR REALITY'S SAKE - ANF FOR THE SAKE
OF BEING NON-ANAL-RETENTIVE.  THIS IS THE WAY THAT THE BAND PLAYS THE SONG LIVE - I'M
SURE THEY ADD THEIR OWN LITTLE NUANCES AND IMPROV'S HERE AND THERE, BUT THIS IS
BASICALLY IT.  OF COURSE, IF YOU'RE HELL-BENT ON KNOWING THE ADDITIONAL HARMONIES,
E-MAIL ME, AND I'LL SEND 'EM OUT TO YA!
Comments