Fear Before The March Of Flames - The 20th Century Was Entirely Mine Chords & Tabs

 

The 20th Century Was Entirely Mine Chords & Tabs

Fear Before The March Of Flames Chords & Tabs

Version: 1 Type: Tab 0 ratings
1 star 2 stars 3 stars 4 stars 5 stars
comments

The 20th Century Was Entirely Mine Tab

Tabbed by:Coheedandnofx6
AIM: xAutumnx Romance

Tuning: Drop DADGBe

           ::INTRO::
e|-------------------------------|
B|-------------------------------|
G|---4------------------5--------|
D|---4-(16x)------------5-(9x)---|
A|---2--------0-0-(4x)--3--------|
D|------------0-0----------------|
PM            . .
       
               ::VERSE::
e|-------------------------------------|
B|-------------------------------------|
G|-------------------------------------|
D|---7-4-4-7-4-4-6-4--7-4-4-7-4-6-7----|
A|-------------------------------------|
D|-------------------------------------|
 
e|-------------------------------------|
B|---4-4-4-x-x-x-4---4-4-4-x-x-x-4-----|
G|---4-4-4-x-x-x-4---2-2-2-x-x-x-2-----|
D|---2-2-2-x-x-x-2---0-0-0-x-x-x-0-----|
A|---0-0-0-x-x-x-0---0-0-0-x-x-x-0-----|
D|-------------------------------------|
[ Tab from: http://www.guitartabs.cc/tabs/f/fear_before_the_march_of_flames/the_20th_century_was_entirely_mine_tab.html ]
e|------------------|
B|------------------|
G|------------------|
D|---3-0-1----------|
A|---------2-0-1----|
D|------------------|

e|------------------------|
B|---4-4-4--4-4--4-4-4----|
G|---2-2-2--4-4--2-2-2----|
D|---0-0-0--2-2--0-0-0----|
A|---0-0-0--0-0--0-0-0----|
D|-------------------(8x)-|

e|------------------------|
B|------------------------|
G|---4-4-4--4-4--4-4-4----|
D|---4-4-4--4-4--4-4-4----|
A|---2-2-2--2-2--2-2-2----|
D|-------------------(5x)-|

e|------------------------------------------------------------------------|
B|------------------------------------------------------------------------|
G|------------------------------------------------------------------------|
D|-----2---2---2---2---2---2---2---2---1---1---1---1---1---1---1---1------|
A|---4---4---4---4---4---4---4---4---4---4---4---4---4---4---4---4--------|
D|------------------------------------------------------------------------|
PM  . . . . . . . . . . . . . . . . . . . . . . . . . . . . . . . . .

PLEASE RATE
Comments