Fear Before The March Of Flames - Should Have Stayed In The Shallows Chords & Tabs

 

Should Have Stayed In The Shallows Chords & Tabs

Fear Before The March Of Flames Chords & Tabs

Version: 1 Type: Bass Tab 0 ratings
1 star 2 stars 3 stars 4 stars 5 stars
comments

Should Have Stayed In The Shallows Bass Tab

This should be right for the most part...please rate

Bass comes in 0:05-0:17
G--------------------------------------|
D-56-6-4444----------------------------|
A--------------------------------------|        (x8)
D--------------------------------------|

0:18-0:35
G-------------------------------------------------------------|
D-63----63----63---63----63-----------------------------------|
A----00-----00---0----00----00--------------------------------|    (x3)
D-------------------------------------------------------------|

0:36-0:43
G------------------------|
D------------------------|
A------------------------|
D-6---6---6---6----------|

0:44-0:59
G-------------------------------------------------------------------------------|
D-63----63---63----6367-63-6367-63----------------------------------------------|
A---00----0-----00--------------------------------------------------------------|
D------------------------------------------77777777-77777777-77777777-77-77-77--|

1:00-1:06
G------------------------|
D------------------------|
A------------------------|
D-6---6---6---6----------|
[ Tab from: http://www.guitartabs.cc/tabs/f/fear_before_the_march_of_flames/should_have_stayed_in_the_shallows_btab.html ]
1:07-1:19
G--------------------------------------|
D-56-6-4444----------------------------|
A--------------------------------------|        (x8)
D--------------------------------------|

1:20-1:30
G---------------------------------|
D-63----63------------------------|
A---00----0-----------------------|        (x4)
D---------------------------------|

1:31-1:43
G-----------------------------|
D-63----63----63---63---------|
A----00----0-----00-----------|    (x2)
D-----------------------------|

1:41-1:55
G------------------------------------------|
D------------------------------------------|
A------------------------------------------|      (x4)
D-66666666666------------------------------|

1:56-2:35
G--------------------------------------------------------------|
D--------------------------------------------------------------|
A--------------------------------------------------------------|    (x2)
D-0-6-0-6-0-6-55555555-0-6-0-6-0-6-77777777--------------------|

2:36-2:48
G------------------------------------------|
D------------------------------------------|
A------------------------------------------|      (x4)
D-66666666666------------------------------|

2:49-3:06
G-------------------------------------------|
D-56-6-4444---------------------------------|
A------------------------------        (x12-|
D-------------------------------------------|
Comments