Fear Before The March Of Flames - On The Bright Side She Could Choke Chords & Tabs

 

On The Bright Side She Could Choke Chords & Tabs

Fear Before The March Of Flames Chords & Tabs

Version: 1 Type: Tab 0 ratings
1 star 2 stars 3 stars 4 stars 5 stars
comments

On The Bright Side She Could Choke Tab

Tabbed by:Coheedandnofx6
AIM: xAutumnx Romance

Tuning: Drop DADGBe 
[ Tab from: http://www.guitartabs.cc/tabs/f/fear_before_the_march_of_flames/on_the_bright_side_she_could_choke_tab.html ]
                        ::INTRO::
e|---------------------------------------------------------|
B|---5--3--5--3--5--3--5--3---6--5--8--5--6--5--8--5-------|
G|---5--5--5--5--5--5--5--5---5--5--5--5--5--5--5--5-------|
D|---------------------------------------------------------|
A|---------------------------------------------------------|
D|---------------------------------------------------------|
                ::VERSE::
    Guitar #1
e|---1--------6---------0--------1------------|
B|---5-(32x)--10-(32x)--4-(32x)--5-(24x)------|
G|---------------------------------------5^---|
D|--------------------------------------------|
A|--------------------------------------------|
D|--------------------------------------------|
   Guitar #1            
e|------------------------------------------|
B|---6--4--6--4--6--4--6--4-----------------|
G|---6--6--6--6--6--6--6--6-----------------|
D|------------------------------------------|
A|------------------------------------------|
D|------------------------------------------|
   Guitar #2
e|------------------------------------------|
B|------------------------------------------|
G|------------------------------------------|
D|------------------------------------------|
A|---5-5-5--5-5-5--5-5-5--5-5-5--5-5-5------|
D|---5-5-5--5-5-5--5-5-5--5-5-5--5-5-5------|
PM   . . .  . . .  . . .  . . .  . . . 
               
              ::OUTRO::
e|------------------------------------------|
B|---3-3-3-3-3p2-3---3-3-3-3-3p2-3----------|
G|---2-2-2-2-2-2-2---2-2-2-2-2-2-2----------|
D|------------------------------------------|
A|------------------------------------------|
D|------------------------------------------|


PLEASE RATE
Comments