Fats Domino - Aint That A Shame Chords & Tabs

 

Aint That A Shame Chords & Tabs

Fats Domino Chords & Tabs

Version: 1 Type: Tab 0 ratings
1 star 2 stars 3 stars 4 stars 5 stars
comments

Aint That A Shame Tab

   
After tabbing I saw that chord versions exist, I wrote a Tab version based on a Version 
from 1957 I think....

As you can see itīs like a 12 bar Blues.... The First four bars are always breaks on 
"You made me cry, when you said goodbye."

  B
e:----------------|----------------|----------------|----------------|
b:----------------|----------------|----------------|----------------|
g:----------------|----------------|----------------|--------6---8---|
d:----9---9-------|-----9---9------|-----9---9------|----9---6---8---|
a:----9---9-------|-----9---9------|-----9---9------|----9---4---6---|
e:----7---7-------|-----7---7------|-----7---7------|----7-----------|
[ Tab from: http://www.guitartabs.cc/tabs/f/fats_domino/aint_that_a_shame_tab.html ]
  E                                 B
e:----------------|----------------|----------------|----------------|
b:----------------|----------------|----------------|----------------|
g:--6-------------|--6-------------|----------------|----------------|
d:----6-9-9-6-9---|----6-9-9-6-9---|--6-------------|--6-------------|
a:7---------------|7---------------|----6-9-9-6-9---|----6-9-9-6-9---|
e:----------------|----------------|7---------------|7---------------|

  E                                 F#
e:----------------|----------------|----------------|----------------|
b:----------------|----------------|----------------|----------------|
g:--6-------------|--6-------------|-11-------------|-11-------------|
d:----6-9-9-6-9---|----6-9-9-6-9---|----8-11-11-8-11|----8-11-11-8-11|
a:7---------------|7---------------|9---------------|9---------------|
e:----------------|----------------|----------------|----------------|

During the solo play the regular 'B Riff' during the first 4 bars

End:
e:----------------|------7---------|
b:----------------|11----7---------|
g:----------------|11----8---------|
d:----------------|11----9---------|
a:--------6-6-7-7-|9-----9---------|
e:7-7-9-9---------|------7---------|
Comments