Fats Domino - Aint That A Shame Chords & Tabs

 

Aint That A Shame Chords & Tabs

Fats Domino Chords & Tabs

Version: 1 Type: Bass Tab 0 ratings
1 star 2 stars 3 stars 4 stars 5 stars
comments

Aint That A Shame Bass Tab

Tabbed by Zac Crook

Tuning: 1/2 Step Down

Verse:
G|-------------------------------|
D|-------------------------------|
A|-----------------------------6-|
E|----7-7----7-7----7-7----7-9---|

Chorus: X4
G|-----------------|-----------------|
D|-----------------|-----------------|
A|-----------------|-----------------|
E|-0-0-4-4-7-7-4-7-|-0-0-4-4-7-7-4-7-|
[ Tab from: http://www.guitartabs.cc/tabs/f/fats_domino/aint_that_a_shame_btab.html ]
G|-----------------|-----------------|
D|-----------------|-----------------|
A|-----6-6-9-9-6-9-|-----6-6-9-9-6-9-|
E|-7-7-------------|-7-7-------------|

(End of last chorus):
G|------------------------------------1--4----|
D|--------------------------1-1--4-4----------|
A|------1-1--4-4--1-4--2-2------------------2-|
E|-2-2----------------------------------------|

That's it...very easy.
Comments