Fatboy Slim - Right Here Right Now Chords & Tabs

 

Right Here Right Now Chords & Tabs

Fatboy Slim Chords & Tabs

Version: 2 Type: Tab 0 ratings
1 star 2 stars 3 stars 4 stars 5 stars
comments

Right Here Right Now Tab

   
Artist: Fatboy Slim
Song: Right Here Right Now

Standard Tunning; EADGBe

e---5-7-8-7-10-8-7-5--3-5-7-5-8-7-5-3---5-7-8-7-10-8-7-5--3-5-7-5-8-7-5-3-|
B-------------------------------------------------------------------------|
G-------------------------------------------------------------------------|
D-------------------------------------------------------------------------|
A-------------------------------------------------------------------------|
E-------------------------------------------------------------------------|

The Chords are:
[ Tab from: http://www.guitartabs.cc/tabs/f/fatboy_slim/right_here_right_now_tab_ver_2.html ]
    A  B  G  Gb
e----------------------------------------|
B----------------------------------------|
G----------------------------------------|
D---7--9--5--4---------------------------|
A---7--9--5--4---------------------------|
E---5--7--3--2---------------------------|
Just the chords are played 8 times then the 2 riffs, merged, are played 5 times, so in 
its played 13 times.

The song then goes on to this:

e----------------------------------------|
B---5~~~---8-7---------------------------|
G----------------------------------------|
D----------------------------------------|
A----------------------------------------|
E----------------------------------------|

The chords being the same without B; A(hold) G Gb
Comments