Fastway - Say What You Will Chords & Tabs

 

Say What You Will Chords & Tabs

Fastway Chords & Tabs

Version: 2 Type: Tab 0 ratings
1 star 2 stars 3 stars 4 stars 5 stars
comments

Say What You Will Tab

   
Artist : Fastway
Song : Say What You Will

Tabbed By : Jet McKoogin

Standard Tuning : E A D G B E


Intro:

   A   A                          D   D   C    
[ Tab from: http://www.guitartabs.cc/tabs/f/fastway/say_what_you_will_tab_ver_2.html ]
|--0---0--------------------------2-0-3---0-0---|
|--2---2---1-2-3--1-2-1-----------3-0-2---1-0---|
|--2---2-----------------2-1-0----2-0-3---0-0---|
|--2---2--------------------------0-0-0---2-0---|
|--0---0--------------------------0-0-0---3-0---|
|-----------------------------------------------|


Chords Used In Verses:

   A  D  C

|--0--2--0----|
|--2--3--1----|
|--2--2--0----|
|--2--0--2----|
|--0--0--3----|
|-------------|



Order Of Cords Used in Verses:

A D  D C 


But at different rythyms

Hope You Like This Tab

- Jet Mcoogin
(Not Real Name)
Comments