Fastway - Another Day Chords & Tabs

 

Another Day Chords & Tabs

Fastway Chords & Tabs

Version: 1 Type: Bass Tab 0 ratings
1 star 2 stars 3 stars 4 stars 5 stars
comments

Another Day Bass Tab

Artist:Fastway
Song:Another Day
Album:Fastway
Tabbed By:Gary Hricewich
E-mail:snapper2001@msn.com
[ Tab from: http://www.guitartabs.cc/tabs/f/fastway/another_day_btab.html ]
                                       
 Intro          Main Line
G-------------|-----------------------|
D-------------|-----------------------|
A-------------|---------3-----------3-|
E-------------|-3-5-5-5---5---0-3-5---|
                                       
                                                                     
 Bridge    
G---|-----|-|-----|-|-----|-|-----|-|-----|-|-----|-|-----|-|-----|-|
D---|*---*|-|*---*|-|*---*|-|*---*|-|*---*|-|*---*|-|*---*|-|*---*|-|
A---|*---*|-|*---*|-|*---*|-|*---*|-|*-3-*|-|*-5-*|-|*-3-*|-|*-5-*|-|
E---|--1--|-|--0--|-|--1--|-|--0--|-|-----|-|-----|-|-----|-|-----|-|
                                                                     
                                                           
 Lead    
G-------------------------|-----|-|-----|-|-----|-|-----|-|
D-----------5-----------5-|*---*|-|*---*|-|*---*|-|*---*|-|
A---5-7-7-7---7-----5-7---|*-3-*|-|*-5-*|-|*-3-*|-|*-5-*|-|
E-----------------7-------|-----|-|-----|-|-----|-|-----|-|
                                                           
                                                                       
 End Of Song 
G---|-----|-|-----|-|-----|-|-----|-|-----|-|-----|-------------------|
D---|*---*|-|*---*|-|*---*|-|*---*|-|*---*|-|*---*|-------------------|
A---|*-3-*|-|*-5-*|-|*-3-*|-|*-5-*|-|*-3-*|-|*-5-*|-7-5-3-5-3---------|
E---|-----|-|-----|-|-----|-|-----|-|-----|-|-----|-----------5-3---5\|
Comments