Fastway - All I Need Is Your Love Chords & Tabs

 

All I Need Is Your Love Chords & Tabs

Fastway Chords & Tabs

Version: 1 Type: Bass Tab 0 ratings
1 star 2 stars 3 stars 4 stars 5 stars
comments

All I Need Is Your Love Bass Tab

Artist:Fastway
Song:All I Need Is Your Love
Album:Fastway
Tabbed By:Gary Hricewich
E-mail:snapper2001@msn.com
[ Tab from: http://www.guitartabs.cc/tabs/f/fastway/all_i_need_is_your_love_btab.html ]
                                                                        
                            12x
G---|--------------------------|---------------------------------------|
D---|*------------------------*|---------------------------------------|
A---|*------------------------*|---------------------------------------|
E---|--0--0-0-0--0-0-0--0-0-3--|-4-4--4--4-4-4--4-4--5-5--5--5-5-5-5-5-|
                                                                        
                                                              
                                                        2x
G---------------------------|------------------------------|
D---------------------------|*----------------------------*|
A---------------------------|*---------------5-5-5--4-4-3-*|
E---2-2--2--2-2-2--2-2--3-4-|--5-5-5--4-4-3----------------|
                                                              
                                                                        
                             8x
G---|--------------------------|---------------------------------------|
D---|*------------------------*|---------------------------------------|
A---|*------------------------*|---------------------------------------|
E---|--0--0-0-0--0-0-0--0-0-3--|-4-4--4--4-4-4--4-4--5-5--5--5-5-5-5-5-|
                                                                        
                                                              
                                                        2x
G---------------------------|------------------------------|
D---------------------------|*----------------------------*|
A---------------------------|*---------------5-5-5--4-4-3-*|
E---2-2--2--2-2-2--2-2--3-4-|--5-5-5--4-4-3----------------|
                                                              
                                                         
                      4x     Lead                  4x
G---|--------------------|-|--------------------------|
D---|*------------------*|-|*------------------------*|
A---|*--------------6-7-*|-|*------------------------*|
E---|--0--4-5--6-7-------|-|--0--0-0-0--0-0-0--0-0-3--|
                                                         
                                                                    
    
G------------------------------------------------------------------|
D------------------------------------------------------------------|
A------------------------------------------------------------------|
E---4-4--4--4-4-4--4-4--5-5--5--5-5-5--5-5--2-2--2--2-2-2--2-2-3-4-|
                                                                    
                                                            
                                2x                 4x End
G---|------------------------------|-|-------------------|
D---|*----------------------------*|-|*-----------------*|
A---|*---------------5-5-5--4-4-3-*|-|*-------------6-7-*|
E---|--5-5-5--4-4-3----------------|-|--0--4-5--6-7------|
Comments