Fastball - Fire Escape Chords & Tabs

 

Fire Escape Chords & Tabs

Fastball Chords & Tabs

Version: 2 Type: Tab 0 ratings
1 star 2 stars 3 stars 4 stars 5 stars
comments

Fire Escape Tab

   
FastBall-Fire escape
Tabbed By Dave wachala csoul@mail.com

Standard tuning

This is kinda hard to play. But if you use index to hold
the "3's"  and your pinky to get that "7", you'll be fine.


Verse:
Riff 1(intro too)
---------3-----3-----2-------
--3--3-3-----3-----3---------
-7---5-----4-----2-----------
-----------------------------
-----------------------------
-----------------------------
[ Tab from: http://www.guitartabs.cc/tabs/f/fastball/fire_escape_tab_ver_2.html ]
riff 2(when He sings)
-----------------------------
-----------------------------
--7---5-5----4-4----2--------
-0----0-0----0-0----0--------
-----------------------------
-----------------------------


G               Em
I don't wanna walk 'round in their shoes...


 
Chorus:
A                 G
I'll be the rain falling on your fire escape
D                                      Riff one time
And I may not be the man you want me to
G                 Em
I can be myself, how 'bout you?
Comments