Fast Reaction - I Dont Care Chords & Tabs

 

I Dont Care Chords & Tabs

Fast Reaction Chords & Tabs

Version: 2 Type: Bass Tab 0 ratings
1 star 2 stars 3 stars 4 stars 5 stars
comments

I Dont Care Bass Tab

Band : Fast reaction
Song : I dont care

This is a pretty easy song to play on bass. Enjoy.


Intro :

E : 0--------------------------------------------------------|
A : -----------0---------------------------------------------|
D : --------------------------0------------------------------|
G : ------------------------------------------00000000000----|


Verse :
[ Tab from: http://www.guitartabs.cc/tabs/f/fast_reaction/i_dont_care_btab_ver_2.html ]
E : ---------------------------------------------------------|
A : ---------------------------------------------------------|
D : 0000000000000--333333333--444444444--555555555-----------|
G : ---------------------------------------------------------|


Chorus :

E : ---------------------------------------------------------|
A : ---------------------------------------------------------|
D : ------2-----2------2>----------------5-------5-----------|
G : ---3-----3-----3-------------------------7-------7----5--|

Song order :

Intro ( X1 )
Verse
Chorus
Verse
Chrous
Verse
Chorus
Chrous
Comments