Farse - Hopskotch Chords & Tabs

 

Hopskotch Chords & Tabs

Farse Chords & Tabs

Version: 2 Type: Tab 0 ratings
1 star 2 stars 3 stars 4 stars 5 stars
comments

Hopskotch Tab

Name: Hopskotch	
Artist: Farse
Album: Boxing Clever
Tabbed By: James Graham (guitardude17_uk@yahoo.co.uk


I've been looking for a tab for this song for a while, I gave up and decided
to tab it out myself.
Hope you guys like it!

Intro (Bass)

-------------
-------------
--6-4-3-4----
-------------


Verse x4 (Clean Tone - Fast Ska Rhythm)

E--6-6---6--6/7--6/7---7x6x4x6--6-6--6/7--6/7----7-7-7-7---6---
B--7-7---7--6/7--6/7---7x6x4x6--7-7--6/7--6/7----7-7-7-7---6---
G--8-8---8--7/8--7/8---8x7x5x7--8-8--7/8--7/8----8-8-8-8---7---
D--8-8---8--8/9--8/9---9x8x6x8--8-8--8/9--8/9----9-9-9-9---8---
A-----------8/9--8/9---9x8x6x8-------8/9--8/9----9-9-9-9---8---
E--------------------------------------------------------------



Chorus x2 (Distortion)

E--------------------------------
B--------------------------------
G--8-8--8-8--7/8-----------------
D--8-8--8-8--7/8--9-9--8--6--8---
A--6-6--6-6--5/6--9-9--8--6--8---
E-----------------7-7--6--4--6---

E--------------------------------
B--------------------------------
G--8-8--8-8--7/8-----------------
D--8-8--8-8--7/8--9-9--10--8--8--
A--6-6--6-6--5/6--9-9--10--8--8--
E-----------------7-7---9--6--6--


Verse x4 (Clean Tone - Fast Ska Rhythm)
[ Tab from: http://www.guitartabs.cc/tabs/f/farse/hopskotch_tab_ver_2.html ]
E--6-6---6--6/7--6/7---7x6x4x6--6-6--6/7--6/7----7-7-7-7---6---
B--7-7---7--6/7--6/7---7x6x4x6--7-7--6/7--6/7----7-7-7-7---6---
G--8-8---8--7/8--7/8---8x7x5x7--8-8--7/8--7/8----8-8-8-8---7---
D--8-8---8--8/9--8/9---9x8x6x8--8-8--8/9--8/9----9-9-9-9---8---
A-----------8/9--8/9---9x8x6x8-------8/9--8/9----9-9-9-9---8---
E--------------------------------------------------------------


Interlude (Clean Tone) 
"Because you tread softly...."

E--6---6------6----6-6-6-6-6-6--5-5-5-5---
B--7----7----7-----7-7-7-7-7-7--6-6-6-6---
G--8-----8---------8-8-8-8-8-8--7-7-7-7---
D--8---------------8-8-8-8-8-8--7-7-7-7---
A--6-------8------------------------------
E--6--------------------------------------
E--6--------------------------------------

Post-Interlude x2  (played over last verse)

E--6x6x6x6x6x6x6x6x6x6x6x6x6x6---6-6--------
B--7x7x7x7x7x7x7x7x7x7x7x7x7x7---6-6--------
G--8x8x8x8x8x8x8x8x8x8x8x8x8x8---7-7--------
D--8x8x8x8x8x8x8x8x8x8x8x8x8x8---8-8--------
A--:::::::::::PM::::::::::::::---8-8--------	
E-------------------------------------------


Chorus x2 (Distortion)

E--------------------------------
B--------------------------------
G--8-8--8-8--7/8-----------------
D--8-8--8-8--7/8--9-9--8--6--8---
A--6-6--6-6--5/6--9-9--8--6--8---
E-----------------7-7--6--4--6---

E--------------------------------
B--------------------------------
G--8-8--8-8--7/8-----------------
D--8-8--8-8--7/8--9-9--10--8--8--
A--6-6--6-6--5/6--9-9--10--8--8--
E-----------------7-7---9--6--6--



End on
E-----
B-----
G--8--
D--8--
A--6--
E-----

I think this sounds pretty accurate, i think all the chords are correct although 
please note i HAVEN'T put the correct amount of strums so listen to the song 
for the exact strums.
Comments