Far East Movement - Like A G6 Chords & Tabs

 

Like A G6 Chords & Tabs

Far East Movement Chords & Tabs

Version: 7 Type: Bass Tab 0 ratings
1 star 2 stars 3 stars 4 stars 5 stars
comments

Like A G6 Bass Tab

   
                                  Like a G6  
                               Far East Movement


[ Tab from: http://www.guitartabs.cc/tabs/f/far_east_movement/like_a_g6_btab_ver_7.html ]
G||----------------------|----------------------|------------||
D||-----------------6----|----------------------|------------||
A||----------------------|--6----7----7----7----|--7----6----||
E||--4----4----4---------|----------------------|------------||

This is My First Tab So I Hope You Guys Like it :] Please Rate

You Can Use These Notes To Solo or Make you own Groove :]

G||------------------4-5-7-|-------||
D||--------------4-6-------|-------||
A||--------4-6-7-----------|-------||
E||--4-6-7-----------------|-------||
Comments