Far - Bury White Chords & Tabs

 

Bury White Chords & Tabs

Far Chords & Tabs

Version: 1 Type: Bass Tab 0 ratings
1 star 2 stars 3 stars 4 stars 5 stars
comments

Bury White Bass Tab

   
Song: Bury White    
Band: Far   
Album: Water and Solutions
Tabbed By: Alex Miller  

This is a really fun song to play, it's also really easy to learn. i recomend 
using a pick but if you want to use your fingers go for it. oh yeah it's 
tuned down to d.  on the little part after the chorus i like to slide up and 
down to the 4th fret before playing it.  it makes it sound cooler
[ Tab from: http://www.guitartabs.cc/tabs/f/far/bury_white_btab.html ]
Verse:
G:----------------
D:-0-0-0-0-0-0----
A:----------------
D:----------------

Chorus:
G:-----------------
D:-----------------
A:-----------------
D:-4-0-0-0-0-0-0-0-

Little part after chorus:
G:------------------------
D:------------------------
A:------------------------
D:-4-4-4-4-4-4-4-4-4-4-4-0

outro:
G:---------------------------------------------------
D:---------------------------------------------------
A:------------------------------------------------0---
D:-4-0-0-0-----4-0-0-0-----4-0-0-0----4-0-0-0-4-5---0
Comments