Fang Island - Ss Fort Jams Chords & Tabs

 

Ss Fort Jams Chords & Tabs

Fang Island Chords & Tabs

Version: 2 Type: Tab 0 ratings
1 star 2 stars 3 stars 4 stars 5 stars
comments

Ss Fort Jams Tab

-------------------------------------------------------------------------------
                             S.S. FORT JAMS - Fang Island
-------------------------------------------------------------------------------
Tabbed by: Corey J. Mahoney
Email: corey.mahoney@gmail.com

Tuning: Drop D


In the intro they play some straight ambience so improvise something to go along 
with these chords maybe
e|--------------------|
B|--------------------|
G|--------------------|
D|--5~--5/7~--7/8~----|
A|--5~--5/7~--7/8~----|
D|--5~--5/7~--7/8~----|

e|-----------------------------|
B|-----------------------------|
G|-----------------------------|
D|--8-8-8-8-8-8-8-8-8~---------|
A|--8-8-8-8-8-8-8-8------------|
D|--8-8-8-8-8-8-8-8------------|
    pm-------------

e|------------------------------------------------------------------------------------|
B|------------------------------------------------------------------------------------|
G|------------10---------------------10-----------------------------------------------|
D|--8-8-10-12----12~-10~~-\8-8-10-12----12-12p10-12p10-8-10-10p8-10p8-10-10-10/12-----|
A|------------------------------------------------------------------------------------|
D|------------------------------------------------------------------------------------|

e|--------------------|
B|--------------------|
G|--------------------|
D|--12b~--12-10-8~----|
A|--------------------|
D|--------------------|

e|------------------------------------------------------------------------|
B|------------------------------------------------------------------------|
G|------------10---------------------10-----------------------------------|
D|--8-8-10-12----12~-10~~-\8-8-10-12----12-12p10-12p10-8-10-10p8-10p8-10--|
A|------------------------------------------------------------------------|
D|------------------------------------------------------------------------|
[ Tab from: http://www.guitartabs.cc/tabs/f/fang_island/ss_fort_jams_tab_ver_2.html ]
e|----------------------------|
B|----------------------------|
G|--10---10---10---10---10----|
D|-----8----8----8----8----8--|
A|----------------------------|
D|----------------------------|

e|----------------------------------|
B|----------------------------------|
G|----------------------------------|
D|--8---8---8--8---8---8--8---8-----|
A|--8---8---8--8---8---8--8---8-----|
D|--8---8---8--8---8---8--8---8-----|

e|-----------------------------------------------------------|
B|--------------------------------------------11--11--11-11--|
G|--------------------------10----10-12-12-10----------------|
D|--8-8h10-8-10-10/12-12-12----12----------------------------|
A|-----------------------------------------------------------|
D|-----------------------------------------------------------|

e|-----------13---------------------|
B|--11-13-15----15-15p13-15p13-11---|
G|----------------------------------|
D|----------------------------------|
A|----------------------------------|
D|----------------------------------|

e|-----------13--15-13-----------------|
B|--11-13-15-----------15-13-11-13-11--|
G|-------------------------------------|
D|-------------------------------------|
A|-------------------------------------|
D|-------------------------------------|

e|-----------13---------------------|
B|--11-13-15----15-15p13-15p13-11---|
G|----------------------------------|
D|----------------------------------|
A|----------------------------------|
D|----------------------------------|

e|--13------13------13---15-15-15-15-15-13-15-13----|
B|------11------11-------------------------------11-|
G|--------------------------------------------------|
D|--------------------------------------------------|
A|--------------------------------------------------|
D|--------------------------------------------------|

listen to the song to repeat that last part after the singing, you'll know
Comments