Family Force 5 - Drama Queen Chords & Tabs

 

Drama Queen Chords & Tabs

Family Force 5 Chords & Tabs

Version: 1 Type: Tab 0 ratings
1 star 2 stars 3 stars 4 stars 5 stars
comments

Drama Queen Tab

BAND: Family Force 5
SONG: Drama Queen
TABBED BY: Christian Hardt
                          *STANDARD DROP D TUNNING*

  INTRO:             VERSE:
E|----------------|--------------------------|
B|----------------|--------------------------|
G|----------------|--------------------------|
D|-555565555565x4-|-5-56665-56665-5666--5x16-| x2
A|----------------|-5-56665-56665-5666-------|
D|----------------|-5-56665-56665-5666-------|
[ Tab from: http://www.guitartabs.cc/tabs/f/family_force_5/drama_queen_tab.html ]
       CHORUS:
E|-----------------------------------------------------------------------------|
B|-----------------------------------------------------------------------------|
G|-----------------------------------------------------------------------------|
D|-5-5--5-5665-5--5-5665-5--5-5665-5--5-5665-5--5-5665-5--5-5665-555565555565X4|
A|-5-5--5-5665-5--5-5665-5--5-5665-5--5-5665-5--5-5665-5--5-5665---------------|
D|-5-5--5-5665-5--5-5665-5--5-5665-5--5-5665-5--5-5665-5--5-5665---------------|

AFTER CHORUS GO BACK TO VERSE THEN GO TO CHORUS THEN THE DJ DOES HIS THING AND
THEN GO TO THE CHORUS AGAIN THEN GO BACK TO VERSE THEN TO CHORUS THEN YOU 
GO TO THE BRIDGE THEN TO INTRO THEN VERSE AND THEN FINNALY FINISH IT WITH THE
CHORUS!

     BRIDGE:
E|------------------------------------------|
B|------------------------------------------|
G|------------------------------------------|
D|-5-5--5-5663-3--3-3665-5--5-5663-3--3-3665|(LET LAST NOTE RING)
A|-5-5--5-5663-3--3-3665-5--5-5663-3--3-3665|
D|-5-5--5-5663-3--3-3665-5--5-5663-3--3-3665|

   THATS ALL HAVE A FUN TIME PLAYING THE SONG:-)
Comments